Box Car Racer - Sorrow Chords & Tabs

 

Sorrow Chords & Tabs

Box Car Racer Chords & Tabs

Version: 2 Type: Tab 0 ratings
1 star 2 stars 3 stars 4 stars 5 stars
comments

Sorrow Tab

* = hold

Intro
E------------------------
B------------------------
G------------------------
D-------2-0--------2-0---
A--5-4-0-0-4--5-4-0-0-4--
E------------------------

Riff1
E---------------------------------
B---------------------------------
G---------------------------------
D-------2-0--------2-0--------2-0-
A--5-4-0-0-4--5-4-0-0-4--5-4-0-0-4*
E---------------------------------

Verse
E---------------------------------------------------
B---------------------------------------------------
G---------------------------------------------------
D--7-7-7-7-7-7-7-7--6-6-6-6-6-6-6-6--4-4-4-4-4-4-4-4
A--x-x-x-x-x-x-x-x--x-x-x-x-x-x-x-x--x-x-x-x-x-x-x-x
E--5-5-5-5-5-5-5-5--4-4-4-4-4-4-4-4--2-2-2-2-2-2-2-2
[ Tab from: http://www.guitartabs.cc/tabs/b/box_car_racer/sorrow_tab_ver_2.html ]
E-----------------
B-----------------
G-----------------
D--6-6-6-6-6-6-6-6
A--x-x-x-x-x-x-x-x
E--4-4-4-4-4-4-4-4

Chorus
E---------------------------------------------------
B---------------------------------------------------
G---------------------------------------------------
D--7-7-7-7-7-7-7-7--6-6-6-6-6-6-6-6--4-4-4-4-4-4-4-4
A--7-7-7-7-7-7-7-7--6-6-6-6-6-6-6-6--4-4-4-4-4-4-4-4
E--5-5-5-5-5-5-5-5--4-4-4-4-4-4-4-4--2-2-2-2-2-2-2-2

E-----------------
B-----------------
G-----------------
D--6-6-6-6-6-6-6-6
A--6-6-6-6-6-6-6-6
E--4-4-4-4-4-4-4-4

Interlude
E---------------
B---------------
G--5-4-0-4-5-4-0   Listen to the cd to find out how many
D---------------   times he does this.
A---------------
E---------------

If you want any more tabs from me email me.
Comments