Box Car Racer - My First Punk Song Chords & Tabs

 

My First Punk Song Chords & Tabs

Box Car Racer Chords & Tabs

Version: 3 Type: Tab 0 ratings
1 star 2 stars 3 stars 4 stars 5 stars
comments

My First Punk Song Tab

   
Box Car Racer
My First Punk Song
Tabbed by Vince a.k.a
    ____                 __  __  __  __  _  ____      _  _
   / __ \ __  __ __     / / / / / / / / (_)/ _  \ /| / \/ \
  / ____// / / // /___ / /_/_/ / /_/_/ / // / / /  | \_/  /
 / /    / /_/ // / / // /\ \  / /\ \  / // /_/ /   | / \ /
/_/    /_____//_/ /_//_/  \_\/_/  \_\/_//_____/   _|_\_//_

~	=	let ring

ok this is an easy and funny song making fun of not “crappy” punk rock bands 
like the opposite of blink and I’m surprised no one made a correct tab of it 
yet cause its really easy. First start off with a bunch of feed back then:
[ Tab from: http://www.guitartabs.cc/tabs/b/box_car_racer/my_first_punk_song_tab_ver_3.html ]
Intro/Verse part
e|--------------------------|
B|--------------------------|
G|-----------6----7---------|
D|-777777777-6-66-7---------|
A|-777777777-4-66-5---------|
E|-555555555---44-----------|

Bridge
e|-----------------|
B|-----------------|
G|----------7----7-|
D|-22222222-7-77-7-|
A|-22222222-5-77-5-|
E|-00000000---55---|

Then play the intro again then this:
Chorus
e|-----------------|
B|-----------------|
G|-9---------------|
D|-9-X-a-bunch-----|
A|-7---------------|
E|-0---------------|

Then play the intro part 
Then the chorus again and end with this:
e|-----------------|
B|-----------------|
G|-----------------|
D|-66--7~~~~~~~~~--|
A|-66--7~~~~~~~~~--|
E|-44--5~~~~~~~~~--|
Comments