Box Car Racer - My First Punk Song Chords & Tabs

 

My First Punk Song Chords & Tabs

Box Car Racer Chords & Tabs

Version: 2 Type: Tab 0 ratings
1 star 2 stars 3 stars 4 stars 5 stars
comments

My First Punk Song Tab

Alright kids...these are just the chords
well thats all this song is but the other tab makes this
song super hard and it doesnt have to be.
[ Tab from: http://www.guitartabs.cc/tabs/b/box_car_racer/my_first_punk_song_tab_ver_2.html ]
First Part
-----------------
-----------------
-------6------7--
--7----6--6---7--
--7----4--6---5--
--5-------4------

Second Part
---------------
---------------
------2--------
--2---2--2--6--
--2------2--6--
------------4--

Mark182Hoppus@blink-182.org 
Comments