Box Car Racer - My First Punk Song Chords & Tabs

 

My First Punk Song Chords & Tabs

Box Car Racer Chords & Tabs

Version: 1 Type: Tab 0 ratings
1 star 2 stars 3 stars 4 stars 5 stars
comments

My First Punk Song Tab

----------------------------------------------------------
	My first punk song - Boxcar racer
----------------------------------------------------------

Tabbed By: J.D. Norwood (j_d_norwood12@hotmail.com)


			Intro (It's sorta hard 2 tell whats
hapennin here but i think hes just doin this
e|--------------------------------------------------------|
B|--------------------------------------------------------|
G|--------------------------------------------------------|
D|--------------------------------------------------------|
A|-7777777777777777---(just keep doin that 4 a while)-----|
E|-5555555555555555---------------------------------------|
[ Tab from: http://www.guitartabs.cc/tabs/b/box_car_racer/my_first_punk_song_tab.html ]
   			first part
e|--------------------------------------------------------|
B|--------------------------------------------------------|
G|--------------------------------------------------------|
D|--------------------------------------------------------|
A|-77777777-1111-66-12------------------------------------|
E|-55555555-9-9--44-10------------------------------------|
			Second part
e|--------------------------------------------------------|
B|--------------------------------------------------------|
G|--------------------------------------------------------|
D|--------------------------------------------------------|
A|-22222222-77-22-66--------------------------------------|
E|-00000000-55-00-44--------------------------------------|

e|--------------------------------------------------------|
B|--------------------------------------------------------|
G|--------------------------------------------------------|
D|--------------------------------------------------------|
A|-77777777-1111-66-12---7-(let it ring)------------------|
E|-55555555-9-9--44-10---5--------------------------------|

	Order
Intro x1
First part x4
Second part x4
outro x1

==========================================================
Comments