Box Car Racer - Mandy Chords & Tabs

 

Mandy Chords & Tabs

Box Car Racer Chords & Tabs

Version: 1 Type: Tab 0 ratings
1 star 2 stars 3 stars 4 stars 5 stars
comments

Mandy Tab

title: mandy
artist: box car racer
album: played live only (taken from 2002.xx.xx - Live in California)
tabbed by: chris johnert 
#####################################################

INTRO RIFF:
e|-----------------|
B|-----------------|
G|-----------------|
D|-----------------|
A|--22-4^6-2-2-222-|
E|-0--0------------|

VERSE:
e|------------------------------------|
B|------------------------------------|
G|-4-4-4-4--4-4-4-4-------------------|
D|-4-4-4-4--4-4-4-4--4-4-4-4--4-4-4-4-|
A|-2-2-2-2--2-2-2-2--4-4-4-4--4-4-4-4-|
E|-------------------2-2-2-2--2-2-2-2-|

CHORUS:
e|------------------|
B|------------------|
G|-4--------------4-|
D|-4-6-2-4--4-2-4-4-|
A|-2-6-2-4--4-2-4-2-|
E|---4-0-2--2-0-2---|

BRIDGE PART 1:
e|-------------------------|
B|-------------------------|
G|-8888-8888-9999-9999-6---|
D|-xxxx-xxxx-xxxx-xxxx---8-|
A|-6666-6666-7777-7777-----|
E|-------------------------|

BRIDGE PART 2:
e|------------------------------------|
B|------------------------------------|
G|-4-4-4-4--4-4-4-4--4-4-4-4--4-4-4-4-|
D|-4-4-4-4--4-4-4-4--4-4-4-4--4-4-4-4-|
A|-2-2-2-2--2-2-2-2--2-2-2-2--2-2-2-2-|
E|------------------------------------|
[ Tab from: http://www.guitartabs.cc/tabs/b/box_car_racer/mandy_tab.html ]
OUTTRO:
e|------------------|
B|------------------|
G|-6--------------6-|
D|-6-8-4-6--6-4-6-6-| (hold last chord last time)
A|-4-8-4-6--6-4-6-4-|
E|---6-2-4--4-2-4---|


SONG ORDER:
**********
intro rif (4x)
verse (2x)
chorus (2x)
intro rif (4x)
verse (2x)
chorus (4x)
bridge pt1 (4x)
chorus (4x)
outtro (4x)

LYRICS:
******

VERSE 1
i remember all my life
rainin' down as cold as ice
shadows of a man
a face through a window
cryin' in the night
the night goes to mornin'

just another day
happy people pass my way
lookin' in their eyes
and i see a memory
i never realized 
how happy you made me

CHORUS
oh mandy
well you came and you left without takin'
i sent you away, oh mandy
well, you kissed me and stopped me from shakin'
i sent you away

VERSE 2
standin' on the edge of time
i walked away when love was mine
caught up in a world of uphill climbin'
tears in my eyes
nothin's rhymin'

just another day
happy people pass my way
lookin' in their eyes
i see a memory
i never realized 
how happy you made me

CHORUS (2x)

BRIDGE
yesterday's a dream
i face the mornin'
cryin' on a breeze
yhe pain is callin', oh mandy ..... oh mandy

CHORUS (3x)

oh mandy ... woah
oh mandy ... woah
oh mandy
Comments