Box Car Racer - Letters To God Chords & Tabs

 

Letters To God Chords & Tabs

Box Car Racer Chords & Tabs

Version: 9 Type: Tab 0 ratings
1 star 2 stars 3 stars 4 stars 5 stars
comments

Letters To God Tab

   
this is a great song and i think one of the best on their cd and i didnt see any correct 
so i decided to post this
tabbed by idonthaveherpes

Intro
[---------------------------------]
[---------------------------------]
[---------------------------------]
[-5-5-5-5-5-5-5-5h4-5-5-5-5-5-5-5-]
[-2-2-2-2-2-2-2-2h5-5-5-5-5-5-5-5-]
[-0-0-0-0-0-0-0-0h2-3-3-3-3-3-3-3-]x2


Verse
"caught off guard..."
[-----------------------------]
[-----------------------------]
[-2-2-2-2-2-2-2---------------]
[-2-2-2-2-2-2-2-5-5-5-5-5-5-5-]
[-2-2-2-2-2-2-2-5-5-5-5-5-5-5-]
[-0-0-0-0-0-0-0-3-3-3-3-3-3-3-]x4

Chorus
"and i, i wont lie..."
[---------------------------------------------------------]
[---------------------------------------------------------]
[---------------5-5-5-5-5-5-5---------------9-9-9-9-9-9-9-]
[-5-5-5-5-5-5-5-5-5-5-5-5-5-5-5-5-5-5-5-5-5-9-9-9-9-9-9-9-]
[-2-2-2-2-2-2-2-3-3-3-3-3-3-3-5-5-5-5-5-5-5-7-7-7-7-7-7-7-]
[-0-0-0-0-0-0-0---------------3-3-3-3-3-3-3---------------]


[---------------------------------]
[---------------------------------]
[---------------------------------]
[-5-5-5-5-5-5-5-5h4-5-5-5-5-5-5-5-]
[-2-2-2-2-2-2-2-2h5-5-5-5-5-5-5-5-]
[-0-0-0-0-0-0-0-0h2-3-3-3-3-3-3-3-]x2

Verse #2
"i should of asked..."
[-----------------------------]
[-----------------------------]
[-2-2-2-2-2-2-2---------------]
[-2-2-2-2-2-2-2-5-5-5-5-5-5-5-]
[-2-2-2-2-2-2-2-5-5-5-5-5-5-5-]
[-0-0-0-0-0-0-0-3-3-3-3-3-3-3-]x4 i know i know you dont think there should be a note on 
g string, but listen cloesly and you should hear it

Chorus
"and i, i wont lie..."
[---------------------------------------------------------]
[---------------------------------------------------------]
[---------------5-5-5-5-5-5-5---------------7-7-7-7-7-7-7-]
[-5-5-5-5-5-5-5-5-5-5-5-5-5-5-5-5-5-5-5-5-5-7-7-7-7-7-7-7-]
[-2-2-2-2-2-2-2-3-3-3-3-3-3-3-5-5-5-5-5-5-5-5-5-5-5-5-5-5-]
[-0-0-0-0-0-0-0---------------3-3-3-3-3-3-3---------------]x2
[ Tab from: http://www.guitartabs.cc/tabs/b/box_car_racer/letters_to_god_tab_ver_9.html ]
Interlude
[---------------------------------------------------------]
[---------------------------------------------------------]
[-----------------------------4-4-4-4-4-4-4-2-2-2-2-2-2-2-]
[-5-5-5-5-5-5-5-7-7-7-7-7-7-7-5-5-5-5-5-5-5-2-2-2-2-2-2-2-]
[-5-5-5-5-5-5-5-7-7-7-7-7-7-7-2-2-2-2-2-2-2-0-0-0-0-0-0-0-]
[-3-3-3-3-3-3-3-5-5-5-5-5-5-5-----------------------------]x1

Interlude(cont'd)
[---------------------------------------------------------]
[---------------------------------------------------------]
[-----------------------------4-4-4-4-4-4-4-5-5-5-5-5-5-5-]
[-5-5-5-5-5-5-5-7-7-7-7-7-7-7-5-5-5-5-5-5-5-5-5-5-5-5-5-5-]
[-5-5-5-5-5-5-5-7-7-7-7-7-7-7-2-2-2-2-2-2-2-3-3-3-3-3-3-3-]
[-3-3-3-3-3-3-3-5-5-5-5-5-5-5-----------------------------]x1

Interlude(cont'd)
[---------------------------------------------------------]
[---------------------------------------------------------]
[-----------------------------4-4-4-4-4-4-4-2-2-2-2-2-2-2-]
[-5-5-5-5-5-5-5-7-7-7-7-7-7-7-5-5-5-5-5-5-5-2-2-2-2-2-2-2-]
[-5-5-5-5-5-5-5-7-7-7-7-7-7-7-2-2-2-2-2-2-2-0-0-0-0-0-0-0-]
[-3-3-3-3-3-3-3-5-5-5-5-5-5-5-----------------------------]x2

TURN ON DISTORTION NOW(in other words this is where the elctric comes in)
[---------------------------------]
[---------------------------------]
[---------------------------------]
[-5-5-5-5-5-5-5-5h4-5-5-5-5-5-5-5-]
[-2-2-2-2-2-2-2-2h5-5-5-5-5-5-5-5-]
[-0-0-0-0-0-0-0-0h2-3-3-3-3-3-3-3-]x2
every 3 chords, stop the strings
(not including the hammer-on)

Chorus
"and i, i wont lie..."
[---------------------------------------------------------]
[---------------------------------------------------------]
[---------------5-5-5-5-5-5-5---------------7-7-7-7-7-7-7-]
[-5-5-5-5-5-5-5-5-5-5-5-5-5-5-5-5-5-5-5-5-5-7-7-7-7-7-7-7-]
[-2-2-2-2-2-2-2-3-3-3-3-3-3-3-5-5-5-5-5-5-5-5-5-5-5-5-5-5-]
[-0-0-0-0-0-0-0---------------3-3-3-3-3-3-3---------------]x4

end on
right after "maybe i dont wanna go"(2nd time)
[---]
[---]
[---]
[-5-]
[-2-]
[-0-]


Lyrics:
verse 1
caught off gaurd
all worked up
the air is as dark and cold as night
let me go
im not done
i swear ill take just one lifetime

chorus
and i
i wont lie
i wont sin
maybe i dont wanna go
cant you wait
maybe i dont wanna go

verse 2
i should of asked
i could of helped
at least a fucking thousand times before
will this offer
get me in
or does this prove that they gave more

chorus
and i
i wont lie
i wont sin
maybe i dont wanna go
cant you wait
maybe i dont wanna go

and i
i wont lie
i wont sin
maybe i dont wanna go
cant you wait
maybe i dont wanna go
Comments