Box Car Racer - Letters To God Chords & Tabs

 

Letters To God Chords & Tabs

Box Car Racer Chords & Tabs

Version: 6 Type: Tab 0 ratings
1 star 2 stars 3 stars 4 stars 5 stars
comments

Letters To God Tab

my favorite song ever!!!!

intro
e|-3-3-3-3-3-3-3-3--3-3--3-3-3-3-3-3-3-3-3-3-|
B|-3-3-3-3-3-3-3-3--3-3--3-3-3-3-3-3-3-3-3-3-|
G|-0-0-0-0-0-0-0-0--0-0--0-0-0-0-0-0-0-0-0-0-|
D|-2-2-2-2-2-2-2-2--2-0--0-0-0-0-0-0-0-0-0-0-|
A|-2-2-2-2-2-2-2-2--0-2--2-2-2-2-2-2-2-2-2-2-|
E|-0-0-0-0-0-0-0-0--0h2--3-3-3-3-3-3-3-3-3-3-|

verse
the same as intro

chorus
e|-3-3-3-3-3-3-3-3--3-3-3-3-3-3-3-3-|
B|-3-3-3-3-3-3-3-3--3-3-3-3-3-3-3-3-|
G|-0-0-0-0-0-0-0-0--5-5-5-5-5-5-5-5-|
D|-2-2-2-2-2-2-2-2--5-5-5-5-5-5-5-5-|
A|-2-2-2-2-2-2-2-2--3-3-3-3-3-3-3-3-|
E|-0-0-0-0-0-0-0-0------------------|

e|-3-3-3-3-3-3-3-3--5-5-5-5-5-5-5-5-|
B|-3-3-3-3-3-3-3-3--5-5-5-5-5-5-5-5-|
G|-x-x-x-x-x-x-x-x--7-7-7-7-7-7-7-7-|
D|-5-5-5-5-5-5-5-5--7-7-7-7-7-7-7-7-|x2
A|-5-5-5-5-5-5-5-5--5-5-5-5-5-5-5-5-|
E|-3-3-3-3-3-3-3-3------------------|

verse

chorus

piano interlude part
e|----------------------------------|
B|----------------------------------|
G|----------------------------------|
D|-5-5-5-5-5-5-5-5--7-7-7-7-7-7-7-7-|
A|-5-5-5-5-5-5-5-5--7-7-7-7-7-7-7-7-|
E|-3-3-3-3-3-3-3-3--5-5-5-5-5-5-5-5-|
[ Tab from: http://www.guitartabs.cc/tabs/b/box_car_racer/letters_to_god_tab_ver_6.html ]
e|-----------------------------------|
B|-----------------------------------|
G|-----------------------------------|
D|-9-9-9-9-9-9-9-9--1010101010101010-|x4
A|-9-9-9-9-9-9-9-9--1010101010101010-|
E|-7-7-7-7-7-7-7-7--8-8-8-8-8-8-8-8--|

end(use distortion)
e|-----------------------------------|
B|-----------------------------------|
G|-----------------------------------|
D|-2-2--2-2-------5-5-5--5-5-5--5-5--|x2
A|-2-2--2-2--0h0--5-5-5--5-5-5--5-5--|
E|-0-0--0-0--0h2--3-3-3--3-3-3--3-3--|

e|-----3-----3----------------------|
B|-----3-----3----------------------|
G|----------------------------------|
D|-2-2---2-2--------5-5-5-5-5-5-5-5-|x2
A|-2-2---2-2---0h0--5-5-5-5-5-5-5-5-|
E|-0-0---0-0---0h2--3-3-3-3-3-3-3-3-|

e|----------------------------------|
B|----------------------------------|
G|------------------5-5-5-5-5-5-5-5-|
D|-2-2-2-2-2-2-2-2--5-5-5-5-5-5-5-5-|
A|-2-2-2-2-2-2-2-2--3-3-3-3-3-3-3-3-|
E|-0-0-0-0-0-0-0-0------------------|

e|----------------------------------|
B|----------------------------------|
G|----------------------------------|
D|-5-5-5-5-5-5-5-5--7-7-7-7-7-7-7-7-|x4
A|-5-5-5-5-5-5-5-5--7-7-7-7-7-7-7-7-|
E|-3-3-3-3-3-3-3-3--5-5-5-5-5-5-5-5-|
Comments