Box Car Racer - Letters To God Chords & Tabs

 

Letters To God Chords & Tabs

Box Car Racer Chords & Tabs

Version: 10 Type: Tab 0 ratings
1 star 2 stars 3 stars 4 stars 5 stars
comments

Letters To God Tab

Heyyyy... I love this song from the Boxcar Racer

It's the part that the piano does, but i arranged it for guitar so
enjoy!
Tabbed by: Neno

e|---------------------------------------3--|
D|-----8--------8---------8-----------------|
G|--7-----7--5-----5--7------7--5--4--2-----|
D|------------------------------------------|
A|------------------------------------------|
E|------------------------------------------|

e|---------------------------------|
B|---------------5-----------5--8--|
G|--4--5--7-7-------7--5--7--------|
D|---------------------------------|
A|---------------------------------|
E|---------------------------------|
[ Tab from: http://www.guitartabs.cc/tabs/b/box_car_racer/letters_to_god_tab_ver_10.html ]
e|--10--8-------8--10-------10--8--7--5--|
B|-----------8-----------8---------------|
G|---------------------------------------|
D|---------------------------------------|
A|---------------------------------------|
E|---------------------------------------|

e|--3-----3-----3-3-----3--5--7--8-------|
B|-----1-----1-------3-------------------|
G|---------------------------------------|
D|---------------------------------------|
A|---------------------------------------|
E|---------------------------------------|

e|------------------------------------------------------------|
B|------------------------------------------------------------|
G|------------------------------------------------------------|
D|--7--7--7----7--7--7----7/9--10--10--10----10--10--10----10-|
A|--7--7--7----7--7--7----7/9--10--10--10----10--10--10----10-|
E|--5--5--5----5--5--5----5/7--8---8---8-----8---8---8-----8--|

and then the song goes on... enjoy!
Comments