Box Car Racer - I Feel So Chords & Tabs

 

I Feel So Chords & Tabs

Box Car Racer Chords & Tabs

Version: 8 Type: Tab 0 ratings
1 star 2 stars 3 stars 4 stars 5 stars
comments

I Feel So Tab

!!! USA !!!Artist: Box Car Racer
Album: Box Car Racer
Song: I Feel So
Tuning: Normal


Guitar 1: Normal Tuning (Distortion)
Guitar 2: Normal Tuning (Distortion)
Guitar 3: Normal Tuning (Acoustic) 



Symbols: | | = Hold and randomly bend note
	 / \ = Tremelo
	 ( ) = Hold Note
    *X*\_x_x = Pick Scrape


On Chorus you can play bottom E chord or this:

e----------------------------------------------------------------
B----------------------------------------------------------------
G--9-------------------------------------------------------------
D--9-------------------------------------------------------------
A--7-------------------------------------------------------------
E--0-------------------------------------------------------------


Intro: Part 1

Guitar 3:
e-----------------------------------------------------------------
B-----------------------------------------------------------------
G-----4-----5-----4-----2-----4-----5-----4-----2-----------------
D--5--5--4--4--2--2--4--4--5--5--4--4--2--2--4--4-----------------
A-----------------------------------------------------------------
E-----------------------------------------------------------------

Intro: Part 2

Guitar 2:
e-----------------------------------------------------------------
B-----------------------------------------------------------------
G-----------------------------------------------------------------
D--(5)------------------------------------------------------------
A--(5)------------------------------------------------------------
E--|3|--|3|--|3|--|3|--|3|--|3|--|3|--|3|--|3|--|3|--|3|--|3|--|3|


Guitar 1:
e-----------------------------------------------------------------
B-----------------------------------------------------------------
G--/12\-----------------------------------------------------------
D----x------------------------------------------------------------
A--/10\-----------------------------------------------------------
E-----------------------------------------------------------------


Guitar 1 & 2:
e-----------------------------------------------------------------
B-----------------------------------------------------------------
G--------------------------7--7--7-----------------------------7--
D--4--5--5-----4--5--5-----x--x--x-----4--5--5-----4--5--5-----x--
A--4--5--5-----4--5--5-----5--5--5-----4--5--5-----4--5--5-----5--
E--2--3--3--0--2--3--3--0-----------0--2--3--3--0--2--3--3--0-----

e-----------------------------------------------------------------
B-----------------------------------------------------------------
G--7--7-----------------------------7--7--7-----------------------
D--x--x-----4--5--5-----4--5--5-----x--x--x-----4--5--5-----4--5--
A--5--5-----4--5--5-----4--5--5-----5--5--5-----4--5--5-----4--5--
E--------0--2--3--3--0--2--3--3--0-----------0--2--3--3--0--2--3--

e-----------------------------------------------------------------
B--------3--3--3--3-----------------------------------------------
G--------4--4--4--4-----------------------------------------------
D--5-----4--4--4--4-----------------------------------------------
A--5-----2--2--2--2-----------------------------------------------
E--3--0-----------------------------------------------------------


Verse:

Guitar 3:
e-----------------------------------------------------------------
B-----------------------------------------------------------------
G-----4-----5-----4-----2-----4-----5-----4-----2-----------------
D--5--5--4--4--2--2--4--4--5--5--4--4--2--2--4--4-----------------
A-----------------------------------------------------------------
E-----------------------------------------------------------------

Guitar 1:
e-----------------------------------------------------------------
B-----------------------------------------------------------------
G-----------------------------------------------------------------
D-----------------------------------------------------------------
A--5--5--4--4--2--2--4--4--5--5--4--4--2--2--4--4-----------------
E--3--3--2--2--0--0--2--2--3--3--2--2--0--0--2--2-----------------
   p.m.__________________________________________|


Chorus:

Guitar 1 & 2:
e-----------------------------------------------------------------
B-----------------------------------------------------------------
G----------------------------------------------------6-6-6-6-6-6-6
D--2-2-2-2-2-2-2-2-2-2-2-2--9-9-9-9-9-9-9-9-9-9-9-9--6-6-6-6-6-6-6
A--2-2-2-2-2-2-2-2-2-2-2-2--6-6-6-6-6-6-6-6-6-6-6-6--4-4-4-4-4-4-4
E--0-0-0-0-0-0-0-0-0-0-0-0----------------------------------------

e-----------------------------------------------------------------
B-----------------------------------------------------------------
G--6-6-6-6-6------------------------------------------------------
D--6-6-6-6-6--9-9-9-9-9-9-9-9-9-9-9-9-----------------------------
A--4-4-4-4-4--6-6-6-6-6-6-6-6-6-6-6-6-----------------------------
E-----------------------------------------------------------------

e-----------------------------------------------------------------
B-----------------------------------------------------------------
G--------------------------7--7--7-----------------------------7--
D--4--5--5-----4--5--5-----x--x--x-----4--5--5-----4--5--5-----x--
A--4--5--5-----4--5--5-----5--5--5-----4--5--5-----4--5--5-----5--
E--2--3--3--0--2--3--3--0-----------0--2--3--3--0--2--3--3--0-----
[ Tab from: http://www.guitartabs.cc/tabs/b/box_car_racer/i_feel_so_tab_ver_8.html ]
e-----------------------------------------------------------------
B-----------------------------------------------------------------
G--7--7-----------------------------7--7--7-----------------------
D--x--x-----4--5--5-----4--5--5-----x--x--x-----4--5--5-----4--5--
A--5--5-----4--5--5-----4--5--5-----5--5--5-----4--5--5-----4--5--
E--------0--2--3--3--0--2--3--3--0-----------0--2--3--3--0--2--3--

e-----------------------------------------------------------------
B-----------------------------------------------------------------
G--------4--4--4--4-----------------------------------------------
D--5-----4--4--4--4-----------------------------------------------
A--5-----1--1--1--1-----------------------------------------------
E--3--0-----------------------------------------------------------


Verse:
Guitar 3:
e-----------------------------------------------------------------
B-----------------------------------------------------------------
G-----4-----5-----4-----2-----4-----5-----4-----2-----------------
D--5--5--4--4--2--2--4--4--5--5--4--4--2--2--4--4-----------------
A-----------------------------------------------------------------
E-----------------------------------------------------------------

Guitar 1:
e-----------------------------------------------------------------
B-----------------------------------------------------------------
G-----------------------------------------------------------------
D-----------------------------------------------------------------
A--5--5--4--4--2--2--4--4--5--5--4--4--2--2--4--4-----------------
E--3--3--2--2--0--0--2--2--3--3--2--2--0--0--2--2-----------------
   p.m.__________________________________________|


Chorus:

Guitar 1 & 2:
e-----------------------------------------------------------------
B-----------------------------------------------------------------
G----------------------------------------------------6-6-6-6-6-6-6
D--2-2-2-2-2-2-2-2-2-2-2-2--9-9-9-9-9-9-9-9-9-9-9-9--6-6-6-6-6-6-6
A--2-2-2-2-2-2-2-2-2-2-2-2--6-6-6-6-6-6-6-6-6-6-6-6--4-4-4-4-4-4-4
E--0-0-0-0-0-0-0-0-0-0-0-0----------------------------------------

e-----------------------------------------------------------------
B-----------------------------------------------------------------
G--6-6-6-6-6------------------------------------------------------
D--6-6-6-6-6--9-9-9-9-9-9-9-9-9-9-9-9-----------------------------
A--4-4-4-4-4--6-6-6-6-6-6-6-6-6-6-6-6-----------------------------
E-----------------------------------------------------------------


Bridge:
Guitar 2:
e-----------------------------------------------------------------
B-----------------------------------------------------------------
G-----------------------------------------------------------------
D--(5)------------------------------------------------------------
A--(5)------------------------------------------------------------
E--|3|--|3|--|3|--|3|--|3|--|3|--|3|--|3|--|3|--|3|--|3|--|3|--|3|

e-----------------------------------------------------------------
B-----------------------------------------------------------------
G-----------------------------------------------------------------
D--(5)------------------------------------------------------------
A--(5)------------------------------------------------------------
E--|3|--|3|--|3|--|3|--|3|--|3|--|3|--|3|--|3|--*X*\_x_x_x_x_x_x_x
                                       
Guitar 1:
e-----------------------------------------------------------------
B-----------------------------------------------------------------
G-----------------------------------------------------------------
D--7-7-7-7----7-7-7-7----7-7-7-7----7-7-7-7-----------------------
A--5-5-5-5----5-5-5-5----5-5-5-5----5-5-5-5-----------------------
E-----------------------------------------------------------------
  p.m._____________________________________| 
e-----------------------------------------------------------------
B-----------------------------------------------------------------
G--------------------------7-7-7-7--------------------------7-7-7-
D--------------------------x-x-x-x--------------------------x-x-x-
A--4--5--5--5--4--5--5--5--5-5-5-5--4--5--5--5--4--5--5--5--5-5-5-
E--2--3--3--3--2--3--3--3-----------2--3--3--3--2--3--3--3--------
  p.m.___________________|         p.m.___________________|
e-----------------------------------------------------------------
B-----------------------------------------------------------------
G--7--------------------------7-7-7-7--------------------------7-7
D--x--------------------------x-x-x-x--------------------------x-x
A--5--4--5--5--5--4--5--5--5--5-5-5-5--4--5--5--5--4--5--5--5--5-5
E-----2--3--3--3--2--3--3--3-----------2--3--3--3--2--3--3--3-----
     p.m.___________________|         p.m.___________________|

e-----------------------------------------------------------------
B-----------------------------------------------------------------
G--4--------------------------------------------------------------
D--x--------------------------------------------------------------
A--2--------------------------------------------------------------
E-----------------------------------------------------------------

Rhythm played with snare drum.

Reapeat Chorus 2X and end on this:

e-----------------------------------------------------------------
B-----------------------------------------------------------------
G-----------------------------------------------------------------
D--2--------------------------------------------------------------
A--2--------------------------------------------------------------
E--0--------------------------------------------------------------
Comments