Box Car Racer - I Feel So Chords & Tabs

 

I Feel So Chords & Tabs

Box Car Racer Chords & Tabs

Version: 6 Type: Tab 0 ratings
1 star 2 stars 3 stars 4 stars 5 stars
comments

I Feel So Tab

   
Artist: Boxcar Racer
Album: Self-Titled
Song: I Feel So
Tuning: Standard (EADGBE)

Order of song at bottom

Guitar 1 uses clean tone for Intro & Verse, but heavy distortion for rest
Guitar 2 uses heavy distortion throughout

Intro (After piano part; Guitar 1)
E-------------------
B-------------------
G------------------- 
D--5-5-4-4---2-2-4-4   2x
A-------------------
E-------------------

Intro Guitar 1 (Hold this for as long as you can)
E------
B------
G------
D--5b--
A--5b--
E--3b--

Intro Guitar 2 (As soon as Guitar 1 lets go)
E--------------------
B--------------------
G--777777777777777-5b
D--777777777777777-5b
A--555555555555555-3b
E--------------------

Main Bit Guitar 1
E------------------------
B------------------------
G---------------------77-
D-----------6/5-6/5-5-77-  8x,On fourth time hold last note
A-Pickslide-6/5-6/5-5-55-
E-----------4/3-4/3-3----

Verse Guitar 1
E-----------------
B-----------------
G-----------------
D-5-5-4-4--2-2-4-4  4x
A-----------------
E-----------------
[ Tab from: http://www.guitartabs.cc/tabs/b/box_car_racer/i_feel_so_tab_ver_6.html ]
Verse Guitar 2 Pick up after second time Guitar 1 plays Verse
E--------------
B--------------
G--------------
D-55-44--22-44-  2x
A-55-44--22-44-
E-33-22--00-22-
pm^^ ^^  ^^ ^^
Chorus Guitar 1
E---------------------------
B---------------------------
G---------8-------6-------8-
D-2-------8-------6-------8-  2x
A-2-------6-------4-------6-
E-0-------------------------

Interlude Guitar 1
E----
B----
G----
D-5b-
A-5b-
E-3b-

Interlude Guitar 2 
E----------------------
B----------------------
G--------------------7-
D-5555(x4)-5555-5555-7-  4x
A-5555-----5555-5555-5-
E-5555-----3333-3333---
pm^^^^     ^^^^ ^^^^  

Interlude Guitar 1
E-------------------------------------------
B-------------------------------------------
G--------------------S----------------------
D-4-4-4-4-444-4-4-4-4T--4-4-4-4-444-4-4-4-4-
A-x-x-x-x-xxx-x-x-x-xO--x-x-x-x-xxx-x-x-x-x-
E-2-2-2-2-222-2-2-2-2P--2-2-2-2-222-2-2-2-2-

E----------------------------------------
B----------------------------------------
G----------------------------------------S
D-4-4-4-4-444-4-4-4-4-4-4-4-4-444-4-4-4-4T
A-x-x-x-x-xxx-x-x-x-x-x-x-x-x-xxx-x-x-x-xO
E-2-2-2-2-222-2-2-2-2-2-2-2-2-222-2-2-2-2P

Last Note Guitar 1
E-------
B-------
G-------
D-2-----
A-2-----
E-0-----

ORDER:
1.Intro
2.Main Bit
3.Verse
4.Chorus
5.Main Bit
6.Verse
7.Chorus
8.Interlude
9. Chorus (Two Choruses, actually)
10.Last Note

Questions Comments Conmcerns Email me inertzero0@earthlink.net Or contact me on AIM 
InertZero0
Comments