Box Car Racer - I Feel So Chords & Tabs

 

I Feel So Chords & Tabs

Box Car Racer Chords & Tabs

Version: 4 Type: Tab 1 rating
1 star 2 stars 3 stars 4 stars 5 stars
comments

I Feel So Tab

   
oxcar Racer
I feel so
Daniel Rowley and Marcio Vincoletto

I just Made a little change at the little verse,and at the intro
STILL WORKING ON THE PIANO INTRO!!!

It starts off as a piano 
Bend=b

|-------------|
|-------------|
|-------------|
|--5----------|
|--5----------|
|--3-----3b---|
Then for a while then stop
|-------------|
|-------------|
|-------------|
|--5----------|
|--x----------|
|--3----------|

then play this before the verse
|-------------------------------------|
|-------------------------------------|
|-------7-----------------------------|
|-5-(5)-x-----------------------------|
|-5-----5-----------------------------|
|-3-----------------------------------|
Listen to the song to find out how many times you play it

Verse x4
|-----------------------------------------------|
|-----------------------------------------------|
|---4---5----4---5------------------------------|
|-5---4-4--2---4-4------------------------------|
|-----------------------------------------------|
|-----------------------------------------------|
[ Tab from: http://www.guitartabs.cc/tabs/b/box_car_racer/i_feel_so_tab_ver_4.html ]
Verse x2 PALM MUTE! Do this Over the little thingy up there
|-----------------------------------------------|
|-----------------------------------------------|
|-----------------------------------------------|
|--55-44--22-44---------------------------------|
|--55-44--22-44---------------------------------|
|--33-22--00-22---------------------------------|

Chorus
|-----------------------------------------------|
|-----------------------------------------------|
|-9-(x6)-9-(x6)-6-(x6)-8-(x6)-------------------|
|-9------9------6------8------------------------|
|-7------6------4------6------------------------|
|-----------------------------------------------|

Interlude thingy
|----------------------------------------------|
|----------------------------------------------|
|----------7-(x4)------------------------------|
|-5-(x6)---x-----------------------------------|
|-5--------5-----------------------------------|
|-3--------------------------------------------|
Verse

Chorous

Interlude

then play this 3 times
|----------------------------------------------|
|----------------------------------------------|
|--4--(x12)------------------------------------|
|--x-------------------------------------------|
|--2-------------------------------------------|
|----------------------------------------------|

Chorous

End on this
|----|
|----|
|-9--|
|-9--|
|-7--|
|----|
Comments