Box Car Racer - I Feel So Chords & Tabs

 

I Feel So Chords & Tabs

Box Car Racer Chords & Tabs

Version: 12 Type: Tab 0 ratings
1 star 2 stars 3 stars 4 stars 5 stars
comments

I Feel So Tab

   
okay im really sick of people getting this song wrong especially on the
acoustic part. ITS NOT THAT HARD PEOPLE. here ya go

Piano Intro

Acoustic Intro x2
E|----------------------------------------------------------------||
B|----------------------------------------------------------------||
G|-----0--4--0--5---0--4--0--2------------------------------------||
D|-----5--5--4--4---2--2--4--4------------------------------------||
A|----------------------------------------------------------------||
E|----------------------------------------------------------------||

Intro (cont.) x2 (Electric w/ distortion)
E|----------------------------------------------------------------||
B|----------------------------------------------------------------||
G|----------------------------------------------------------------||
D|----5~~~~~~~~~~~~~~~~~~~~~~~~~~~~~~~~~~~~~~~~~~-----------------||
A|----5~~~~~~~~~~~~~~~~~~~~~~~~~~~~~~~~~~~~~~~~~~-----------------||
E|----3~~~~~~~~~~~~~~~~~~~~~~~~~~~~~~~~~~~~~~~~~~-----------------||
let that ring out for a while (about 5-8 seconds, then do it again 
remember to bend occasionally)

Intro (cont.)
E|----------------------------------------------------------------||
B|----------------------------------------------------------------||
G|--------12-12-12-12-12-12-12-12-12-12-12-12-12-12-12-12-12-12b--||
D|--------x--x--x--x--x--x--x--x--x--x--x--x--x--x--x--x--x--x----||
A|--------10-10-10-10-10-10-10-10-10-10-10-10-10-10-10-10-10-10b--||
E|----0-----------------------------------------------------------||
The # of strokes on the octave note may not be right but just do it
as fast as you can for about 4 seconds

Intro (cont.)
E|----------------------------------------------------------------||
B|----------------------------------------------------------------||
G|----------------------------------------------------------------||
D|----3~~~~~~~~~~~~~~~~~------------------------------------------||
A|----3-~~~~~~~~~~~~~~~~------------------------------------------||
E|----5~~~~~~~~~~~~~~~~~->>>>>>>>>>>>>>>>>>>>>>>>>>>>>>>>>>-------||
                          pickslide
Main Riff x3
E|-------------------------------(--------------------------------||
B|-------------------------------(--------------------------------||
G|----------------7-7-7-7--------(-------------------4~~~~~~~-----||
D|--5~~-5--5~~-5--x-x-x-x--------(-5~~-5--5~~-5~~p0--4~~~~~~~-----||
A|--5~~-5--5~~-5--5-5-5-5--------(-5~~-5--5~~-5~~p0--2~~~~~~~-----||
E|--0h3-3--0h3-3-----------------(-0h3-3--0h3-3~~p0---------------||
then after the thrid time  do this ^

Main Riff (cont.) x3
E|-------------------------------(--------------------------------||
B|-------------------------------(--------------------------------||
G|----------------7-7-7-7--------(--------------------------------||
D|--5~~-5--5~~-5--x-x-x-x--------(--5~~-5~~5---5~~4---------------||
A|--5~~-5--5~~-5--5-5-5-5--------(--5~~-5~~5---5~~4---------------||
E|--0h3-3--0h3-3-----------------(--0h3-3--0h3-3~~2---------------||
then after the third time do this  ^

Verse x4 (Acoustic)
E|----------------------------------------------------------------||
B|----------------------------------------------------------------||
G|-----0--4--0--5---0--4--0--2------------------------------------||
D|-----5--5--4--4---2--2--4--4------------------------------------||
A|----------------------------------------------------------------||
E|----------------------------------------------------------------||

Verse x2 (comes in after the acoustic has gone twice)(Electric)
E|----------------------------------------------------------------||
B|----------------------------------------------------------------||
G|----------------------------------------------------------------||
D|---5-5--4-4--2-2--4-4-------------------------------------------||
A|---5-5--4-4--2-2--4-4-------------------------------------------||
E|---5-5--2-2--0-0--2-2-------------------------------------------||

Chorus x2
E|----------------------------------------------------------------||
B|----------------------------------------------------------------||
G|----------------------------------------------------------------||
D|-----------------9-9-9-9-9-9-9--6-6-6-6-6-6-6--9-9-9-9-9-9-9----||
A|--2-2-2-2-2-2-2--6-6-6-6-6-6-6--4-4-4-4-4-4-4--6-6-6-6-6-6-6----||
E|--0-0-0-0-0-0-0-------------------------------------------------||
[ Tab from: http://www.guitartabs.cc/tabs/b/box_car_racer/i_feel_so_tab_ver_12.html ]
Main Riff x3
E|-------------------------------(--------------------------------||
B|-------------------------------(--------------------------------||
G|----------------7-7-7-7--------(--------------------------------||
D|--5~~-5--5~~-5--x-x-x-x--------(--5~~-5~~5---5~~4---------------||
A|--5~~-5--5~~-5--5-5-5-5--------(--5~~-5~~5---5~~4---------------||
E|--0h3-3--0h3-3-----------------(--0h3-3--0h3-3~~2---------------||
then after the third time do this  ^

Verse x4 (Acoustic)
E|----------------------------------------------------------------||
B|----------------------------------------------------------------||
G|-----0--4--0--5---0--4--0--2------------------------------------||
D|-----5--5--4--4---2--2--4--4------------------------------------||
A|----------------------------------------------------------------||
E|----------------------------------------------------------------||

Verse x2 (comes in after the acoustic has gone twice)(Electric)
E|----------------------------------------------------------------||
B|----------------------------------------------------------------||
G|----------------------------------------------------------------||
D|---5-5--4-4--2-2--4-4-------------------------------------------||
A|---5-5--4-4--2-2--4-4-------------------------------------------||
E|---5-5--2-2--0-0--2-2-------------------------------------------||

Chorus x2
E|----------------------------------------------------------------||
B|----------------------------------------------------------------||
G|----------------------------------------------------------------||
D|-----------------9-9-9-9-9-9-9--6-6-6-6-6-6-6--9-9-9-9-9-9-9----||
A|--2-2-2-2-2-2-2--6-6-6-6-6-6-6--4-4-4-4-4-4-4--6-6-6-6-6-6-6----||
E|--0-0-0-0-0-0-0-------------------------------------------------||

Bridge
E|----------------------------------------------------------------||
B|----------------------------------------------------------------||
G|----------------------------------------------------------------||
D|----5~~~~~~~~~~~~~~~~~~~~~~~~~~~~~~~~~~~~~~~~~~-----------------||
A|----5~~~~~~~~~~~~~~~~~~~~~~~~~~~~~~~~~~~~~~~~~~-----------------||
E|----3~~~~~~~~~~~~~~~~~~~~~~~~~~~~~~~~~~~~~~~~~~-0h3b-0h3b-0-3~~-||
let that ring out for a while (about 5-8 seconds, ^ this part isnt
in the song but it sounds really good with it)


Bridge (cont.)
E|----------------------------------------------------------------||
B|----------------------------------------------------------------||
G|----------------------------------------------------------------||
D|----------------------------------------------------------------||
A|---------------------------5-5-5-5---5-5-5-5---5-5-5-5--5-5-5-5-||
E|-->>>>>>>>>>>>>>>>>>>>>>----------------------------------------||
        Pickslide            ^^^^^palm muted^^^^^^^^^^^^^^^^^^^^^


Bride (cont.)x3
E|-------------------------(--------------------------------------||
B|-------------------------(--------------------------------------||
G|-----------------5-5-5-5-(-=palm muted=-------------------------||
D|-5---5--5---5----x-x-x-x-(-5---5--5---5-------------------------||
A|-5---5--5---5----7-7-7-7-(-5---5--5---5-------------------------||
E|-0h3-3--0h3-3------------(-0h3-3--0h3-3--->>>>>>>>>>>>>>>>>>>---||
   ^^^^^^^^^^p.m. after the third time ^^ 




Bridge (cont.) x2
E|----------------------------------------------------------------||
B|----------------------------------------------------------------||
G|----------------------------------------------------------------||
D|--4-4-4--4-4-4--4-4-4-4--4-4-4--4-4-4-4-4-----------------------||
A|--x-x-x--x-x-x--x-x-x-x--x-x-x--x-x-x-x-x-----------------------||
E|--2-2-2--2-2-2--2-2-2-2--2-2-2--2-2-2-2-2-----------------------||


Bridge (cont.)
E|----------------------------------------------------------------||
B|----------------------------------------------------------------||
G|----------------------------------------------------------------||
D|-4-4-4--4-4-4--4-4-4-4--4-4-4--4-4-4--4-4-4-4--4-4-4-4-4-4-4----||
A|-x-x-x--x-x-x--x-x-x-x--x-x-x--x-x-x--x-x-x-x--x-x-x-x-x-x-x----||
E|-2-2-2--2-2-2--2-2-2-2--2-2-2--2-2-2--2-2-2-2--2-2-2-2-2-2-2----||


Chorus x4
E|----------------------------------------------------------------||
B|----------------------------------------------------------------||
G|----------------------------------------------------------------||
D|-----------------9-9-9-9-9-9-9--6-6-6-6-6-6-6--9-9-9-9-9-9-9----||
A|--2-2-2-2-2-2-2--6-6-6-6-6-6-6--4-4-4-4-4-4-4--6-6-6-6-6-6-6----||
E|--0-0-0-0-0-0-0-------------------------------------------------||

End on
E|----------------||
B|----------------||
G|----------------||
D|-2~~~~~~~~~~~~~~||
A|-2~~~~~~~~~~~~~~||
E|-0~~~~~~~~~~~~~~||

and thats it. listen to the song to get timing down. the # of strokes
may not be right no the chorus and octaves on the bridge but im pretty
sure its right. besides the # of strokes, its 100% correct i garuntee it.
Comments