Box Car Racer - I Feel So Chords & Tabs

 

I Feel So Chords & Tabs

Box Car Racer Chords & Tabs

Version: 1 Type: Tab 0 ratings
1 star 2 stars 3 stars 4 stars 5 stars
comments

I Feel So Tab

Boxcar Racer

I Feel So...

intro after piano part

e---------------------
b---------------------
g---------------------
d5-5-4-4--2-2-4-4      (2x)
a--------------------
e---------------------

e---------------------
b---------------------
g---------------------
d5-------------------     (bend whole chord)
a5-------------------
e3--------------------


(bass plays for a little bit)

guitar comes in with distortion
e-------------------------                      
b-------------------------                      
g-------------7-7--------                     
d-4/5--4/5--7-7-------3      
a-4/5--4/5--5-5(3x)--5                     
e-2/3--2/3-------------5

e--------------------------
b--------------------------
g------------7-7----------
d-4/5-4/5--7-7-(6x)-3-
a-4/5-4/5--5-5-------5-
e-2/3-4/5-------------5-





verse
e-------------------------------
b-------------------------------
g-------------------------------
d-5-5--4-4--2-2--4-4-------- (2x)
a-------------------------------
e-------------------------------

palm mute below part
e-------------------------------
b-------------------------------
g-------------------------------
d-5-5-4-4-2-2-4-4-----
a-5-5-4-4-2-2-4-4-----
e-3-5-2-2-0-0-2-2----
[ Tab from: http://www.guitartabs.cc/tabs/b/box_car_racer/i_feel_so_tab.html ]
chorus

e--------------------------------------------------------------------------
b--------------------------------------------------------------------------
g-99999999-99999999--66666666-88888888---------------------
d-99999999-99999999--66666666-88888888---------------------    play twice
a-77777777-66666666--44444444-66666666---------------------
e--------------------------------------------------------------------------

e-----------------------------------------------------
b-----------------------------------------------------
g------------77-------------77-------77------------3
d-4/5-4/5--77--4/5-4/5--77--4/5--77--4/5-4/5-3-
a-4/5-4/5--55--4/5-4/5--55--4/5--55--4/5-4/5-5-
e-2/3-2/3-------2/3-4/5-------2/3-------2/3-2/3---

verse


chorus

bass plays
last part before the final chorus

e---------------------------------------------------
b---------------------------------------------------
g--444444444444--444444444444--44444444444444444444-
d--xxxxxxxxxxxx--xxxxxxxxxxxx--xxxxxxxxxxxxxxxxxxxx-
a--222222222222--222222222222--22222222222222222222-
e---------------------------------------------------      play chorus 2x


this is my first tab typing out so if u dont understand it thats why, its an easy song
to play so have fun with it.
Comments