Box Car Racer - I Feel So Chords & Tabs

 

I Feel So Chords & Tabs

Box Car Racer Chords & Tabs

Version: 3 Type: Bass Tab 0 ratings
1 star 2 stars 3 stars 4 stars 5 stars
comments

I Feel So Bass Tab

   
This is better than my older version


Intro part 1 for a long time
G|---------------------------------------------------------|
D|---------------------------------------------------------|
A|-----------5555-x4-----------2222-x4---------------------|
E|-0h33-0h33---------0h33-0h33-----------------------------|
[ Tab from: http://www.guitartabs.cc/tabs/b/box_car_racer/i_feel_so_btab_ver_3.html ]
Intro Part 2(with guitar)
G|---------------------------------------------------------|
D|---------------------------------------------------------|
A|--------5555-x4----------2~-------------5555-x4-----2222-|
E|-0h33-0h33-----0h33-0h33-------0h33-0h33--------0h33-----|
Verse
G|------------------------------------------------------|
D|------------------------------------------------------|
A|------------------------------------------------------|
E|-33-22-00-22-33-22-00-22------------------------------|


Chorus
G|---------------------------------------------------------|
D|---------------------------------------------------------|
A|----------66666666-44444444-66666666---------------------|
E|-00000000------------------------------------------------|

G|----------------------------------------|
D|----------------------------------------| this is 2nd time
A|-77777777-666666666-444444444-666666666-|
E|----------------------------------------|

After chorus
G|------------------------------------------------------|
D|------------------------------------------------------|
A|-----------5555-x4------------------------------------|
E|-0h33-0h33--------------------------------------------|

verse

Chorus

Intro Part 1 x

after chorus

chorus

End
G|---|
D|---|
A|-7-|
E|---|
Comments