Box Car Racer - End With You Chords & Tabs

 

End With You Chords & Tabs

Box Car Racer Chords & Tabs

Version: 2 Type: Bass Tab 0 ratings
1 star 2 stars 3 stars 4 stars 5 stars
comments

End With You Bass Tab

ok this is the song the end with you this sounds right to me so
here u go

intro:
G:-------------------------------------------------------------
d:-------------------------------------------------------------
a:-222-4-5555555-45--------------------------------------------
E:------------------4------------------------------------------

verse:
G:-------------------------------------------------------------
d:-------------------------------------------------------------
a:-------------------------------------------------------------
E:-55555555-222-455555555--------------------------------------

chorus:
G:-------------------------------------------------------------
d:-------------------------------------------------------------
a:-------------------------------------------------------------
E:-555555555-444-222222222-------------------------------------
[ Tab from: http://www.guitartabs.cc/tabs/b/box_car_racer/end_with_you_btab_ver_2.html ]
solo:
g:-------------------------------------------------------------
d:-------------------------------------------------------------
a:--------444-56-----------------------------------------------
E:-222-45------------------------------------------------------

intro:x4
verse:x8
chorus:x2
verse:x8
chorus:x4
solo:x6
chorus:x4

what the fuck
our days are running thin 
are hopes will start to fall 
and feel the world colapse around me 
from with in 
letters keep coming bye 
to let us know when time will die 
and please god will you forgive us 
and gives us one more try  

as your well than welcome 
just as we go far 
and maybe well be forgotten 
when the world is torn apart

been up all night long 
counting days that all went wrong 
i open my bedroom window 
i wish this pain was gone 
there are no useful drugs 
to escape from feeling numb 
i remember an amazing birthday i remember when i was young

as your well than welcome 
just as we go far 
and maybe well be forgotten 
when the world is torn apart
the sun wont be so blinding
and the waves will finally come
the ashes will finally pile up
just to prove were finally done
what the fuck
Comments