Box Car Racer - Elevator Chords & Tabs

 

Elevator Chords & Tabs

Box Car Racer Chords & Tabs

Version: 6 Type: Tab

Elevator Tab

Song: Elevator
By: Box Car Racer
Album: Box Car Racer
Tabbed by: clansman80

This song is really simple. Just one riff that repeats until near the end of the song.

Standard Tuning

e|---------------------------------------------------------------------||
B|---------------------------------------------------------------------||
G|---------------------------------------------------------------------||
D|----------4---5---5------5--------------------9----------------------||
A|-------------------------------------10--------------10-------10-----||
E|--3-3-3-3---3---3----3-3---------8-8----8-8-8----7-7----7-7-7--------||


[ Tab from: http://www.guitartabs.cc/tabs/b/box_car_racer/elevator_tab_ver_6.html ]
There's also a violin riff near the end, just thought I'd add it in to take up some space.

|----------------------------------------------------------------------||
|----------------------------------------------------------------------||
|----------------------------------------------------------------------||
|-----0---0---0---0----0---0---0---0----0---0---0---0----------4-------||
|---3---3---3---3----2---2---2---2----0---0---0---0--------------------||
|------------------------------------------------------3-3-3-3---------||


|-----------------------||
|-----------------------||
|-----------------------||
|-----5---5-------------||
|-------------0-2-------||
|---3---3---3-----3-----||