Box Car Racer - Elevator Chords & Tabs

 

Elevator Chords & Tabs

Box Car Racer Chords & Tabs

Version: 1 Type: Tab 0 ratings
1 star 2 stars 3 stars 4 stars 5 stars
comments

Elevator Tab

Artist: Box Car Racer
Song: Elevator
Album: Box Car Racer 
Tuning: Standard
Submitted By: Frank T.

x=Scratch/Dead Note
/=Slide






Intro:
GTR II
E------------------------------------------
B------------------------------------------
G---------------0000-5555/0-4040-04--------
D----0000505050-xxxx-xxxx/x-xxxx-xx--------
A----xxxxxxxxxx-3333-3333/2-2222-22--------
E----3333333333----------------------------
[ Tab from: http://www.guitartabs.cc/tabs/b/box_car_racer/elevator_tab.html ]
Intro:
GTR I
E-------------------------------------------
B-------------------------------------------
G---------------------x-555555-0000000------
D----555555/444/55555-x-xxxxxx-xxxxxxx------
A----xxxxxx/xxx/xxxxx-x-333333-2222222------
E----333333/222/33333-----------------------

Ending:
E---------------------------------------------
B---------------------------------------------
G-----------------0-0000000-0-0000000---------
D--5/4--4-5--555--x-xxxxxxx-x-xxxxxxx---------
A--x/x--x-x--xxx--3-3333333-2-2222222---------
E--3/2--2-3--333------------------------------

Comments