Box Car Racer - Elevator Chords & Tabs

 

Elevator Chords & Tabs

Box Car Racer Chords & Tabs

Version: 2 Type: Bass Tab 0 ratings
1 star 2 stars 3 stars 4 stars 5 stars
comments

Elevator Bass Tab

Although ther is probably little or no bass in this son it was fun to just mess around. 

G:-------5---------4-----------------------------------------------
D:---5-------------------------------------------------------------
A:-----------------------------------------------------------------
E:-----------------------------------------------------------------

Each note is play 8 times and this is repeated all the way through. Alternativly it could be played......
[ Tab from: http://www.guitartabs.cc/tabs/b/box_car_racer/elevator_btab_ver_2.html ]
G:-----------------------------------------------------------------
D:-----5-----------------------------------------------------------
A:----------3-----------2------------------------------------------
E:-----------------------------------------------------------------

......or.......

G:-----------------------------------------------------------------
D:---------5-------------------------------------------------------
A:--------------3-------------5------------------------------------
E:-----------------------------------------------------------------

Tabbed by Tony Ward.
Comments