Box Car Racer - Cat Like Thief Chords & Tabs

 

Cat Like Thief Chords & Tabs

Box Car Racer Chords & Tabs

Version: 6 Type: Tab 0 ratings
1 star 2 stars 3 stars 4 stars 5 stars
comments

Cat Like Thief Tab

   
100% RIGHT

Song:Cat Like Thief
Band:Box Car racer
Instrument: Guitar
Album:Box Car racer

[ Tab from: http://www.guitartabs.cc/tabs/b/box_car_racer/cat_like_thief_tab_ver_6.html ]
Repeat Through The Whole SongGuitar 1
e -----------------------------------------------
B -----------------------------------------------
G 2-2-2-2-2-2-2-2-2-2-2-2-2-2-2-2-2-2-2-2-2-2-2-2
D 2-2-2-2-2-2-2-2-2-2-2-2-2-2-2-2-2-2-2-2-2-2-2-2
A 0-0-0-0-0-0-0-0-0-0-0-0-0-0-0-0-0-0-0-0-0-0-0-0
E -----------------------------------------------
  
Guitar 2
e -----------------------------------------------
B -----------------------------------------------
G ----2-----2-----6-----6-----7-----7-----7-----7
D ----2-----2-----6-----6-----7-----7-----7-----7
A 0-0---0-0---4-4---4-4---5-5---5-5---5-5---5-5--
E -----------------------------------------------

Outro Backround Solo
e ------12------12--9-10-9-10--------
B 10-10---10-10----------------------
G -----------------------------------
D -----------------------------------
A -----------------------------------
E -----------------------------------
Comments