Box Car Racer - Boxcar Racer Chords & Tabs

 

Boxcar Racer Chords & Tabs

Box Car Racer Chords & Tabs

Version: 2 Type: Tab 0 ratings
1 star 2 stars 3 stars 4 stars 5 stars
comments

Boxcar Racer Tab

   
***************************************************************************
*                          Artist: BOXCAR RACER 			  *
*                          Album: Boxcar Racer  			  *
*                          Tabbed by: Jose Cruz 			  *
***************************************************************************

Standar tunning
palm muted = *
Bend = b
scrath = x 

////////////////////////    1) I FEEL SO    //////////////////////////////
Acustic Intro
1 -----------------------------|
2 -----------------------------|
3 -----------------------------|
4 -----8----9-----8----6-------|
5 --9--9-8--8--6--6-8--8-------|
6 -----------------------------|

Intro Pt1
1 ---------| |----|
2 ---------| |----|
3 ---------| |-0--|
4 -55------| |-0--|
5 -55------| |-x--|
6 -33------| |-3--|
   bb
Intro Pt2  [Guitar 1]
1 --------------|
2 --------------|
3 --12\---------|
4 --x  >x30-----|
5 0-10/---------|
6 0-------------|

Intro Pt2 [Guitar 2]  after [Guitar 1] | despues de [Guitarra 1]
1 --------------|
2 --------------|
3 --------------|
4 ---------5----|
5 ---------0----|
6 ---------3----|

Intro Pt3
1 ----------------------|
2 ----------------------|
3 ----------7777--------|
4 -55555555-xxxx--------|   ..........   ........
5 -55555555-5555--------|   |. = down|   |' = up|
6 -33333333-------------|   ''''''''''   ''''''''
   .'''.''' .'.'

Intro Pt4 
1 --------------------|
2 --------------------|
3 -----------4--------|
4 -555555555-4--------|  ..........   ........
5 -555555555-2--------|  |. = down|   |' = up|
6 -333333333----------|  ''''''''''   ''''''''
   .'''.'''. '

Verse [Guitar 1]
1 --------------------------|
2 --------------------------|
3 --------------------------|
4 -----6----4----6----4-----|
5 --7--7-6--6-4--4-6--6-----|
6 --------------------------|

Verse [Guitar 2]   (After Guitar 1 play the first 2 times) |
(Despues de que la Guitarra 1 toca 2 veces)
1 ------------------|
2 ------------------|
3 ------------------|
4 ------------------|
5 -55--44--22--44---|
6 -33--22--00--22---|
   **  **  **  **

Chorus [Guitar 1]
1 ---------------------------------------|
2 ---------------------------------------|
3 -99999999-88888888-66666666-88888888---|
4 -99999999-88888888-66666666-88888888---|
5 -77777777-66666666-44444444-66666666---|
6 ---------------------------------------|

Chorus [Guitar 2]
1 ---------------------------------------|
2 ---------------------------------------|
3 ----------88888888-66666666-88888888---|
4 -22222222----------66666666------------|
5 -22222222-66666666-44444444-66666666---|
6 -00000000------------------------------|

Interlude Pt1
1 ---------|
2 ---------|
3 -7777----|
4 -7777----|
5 -5555----|
6 ---------|
   xxxx

Interlude Pt2 [Guitar 1]
1 --------------------------|
2 --------------------------|
3 --------------------------|
4 --------------------------|
5 -5-555-5-555--------------|
6 -3-333-3-333--------------|
     ***   ***

Interlude Pt2 [Guitar 2] (After Guitar 1) | (despues de Guitarra 1)
1 --------------------------|
2 --------------------------|
3 -7777---------------------|
4 -xxxx---------------------|
5 -5555---------------------|
6 --------------------------|

Interlude Pt3
1 ----------|
2 ----------|
3 -4\-------|
4 -x >x30---|
5 -2/-------|
6 ----------|

SONG ORDER
    Acustic Intro x2
    Intro Pt1 x2
    Intro Pt2
    Intro Pt3 x3
    Intro Pt4
    Intro Pt3 x3
    Intro Pt4
    Verse [Guitar 1 & 2]
    Chorus [Guitar 1 & 2] x2
    Intro Pt3 x3
    Intro Pt4
    Verse [Guitar 1 & 2]
    Chorus [Guitar 1 & 2] x2
    Interlude Pt1  x4
    Interlude Pt2 [Guitar 1 & 2] x4
    Interlude Pt3 x1
    Chorus [Guitar 1 & 2] x4

/////////////////////////    2) ALL SYSTEM GO    //////////////////////////////
Pre-intro [Guitar 1]distorn [Guitar 2]Clean
1 ------------------------|
2 ------------------------|
3 ------------------------|
4 ------------------------|
5 --7777-7777-7777777-----|
6 --5555-5555-5555555-----|

Intro [Guitar 1]
1 -------------------------|
2 -------------------------|
3 -------6666--------------|
4 --777--6666-666-77-66-22-|
5 --7770-4444-666-77-66-22-|
6 --5550------444-55-44-00-|

Intro [Guitar 2]
1 --------------------------|
2 --------------------------|
3 --------------------------|
4 --------------------------|
5 --777-111111-666-77-66-22-|
6 --555-9 9 9--444-55-44-00-|

Verse [Guitar 1]
1 -----------------------------------------|
2 -----------------------------------------|
3 -----------------------------------------|
4 -7777777777777/1111111111--4444/666------|
5 -----------------------------------------|
6 -5555555555555/9 9 9 9 9-0-2222/444------|

Verse [Guitar 1]
1 -----------------------------------------|
2 -----------------------------------------|
3 -----------------------------------------|
4 -7777777777777-7 7 7 7 7 7-77777-777-----|
5 -----------------------------------------|
6 -5555555555555-5 5 5 5 5 5-55555-555-----|

Chorus [Guitar 1]
1 ----------------------------------------|
2 ----------------------------------------|
3 ----------------------------------------|
4 -55555555-44444444-22222222-------------|
5 -33333333-22222222-00000000-33333333----|
6 ----------------------------11111111----|

Chorus [Guitar 2]
1 -------------------------------------------------------------------|
2 -1313131313131313-1313131313131313-1010101010101010-------- -------|
3 ----------------------------------------------------10101010101010-|
4 -1111111111111111-1111111111111111-7 7 7 7 7 7 7 7-----------------|
5 ----------------------------------------------------8 8 8 8 8 8 8--|
6 -------------------------------------------------------------------|

Interlude [Guitar 1]
1 -------------------------------|
2 -------------------------------|
3 -------------------------------|
4 --7776667776667766-------------|
5 -------------------------------|
6 -------------------------------|

Interlude [Guitar 2]
1 -------------------------------|
2 -------------------------------|
3 -------------------------------|
4 -------------------7777--------|
5 -------------------7777--------|
6 --5555555555555555-5555--------|
    **************** ****

SONG ORDER
 Pre-Intro x2
 intro [Guitar 1 & 2] x4
 Verse [Guitar 1] x4
 Chorus [Guitar 1 & 2] x2
 Pre-Intro x1
 intro [Guitar 1 & 2] x2
 Verse [Guitar 1] x4
 Pre-Intro x1
 Chorus [Guitar 1 & 2] x4
 Interlude [Guitar 1] x8
 Interlude [Guitar 2] x4
 Chorus [Guitar 1 & 2] x4
 Intro [Guitar 1] x2
 Intro [Guitar 1 & 2] x2 -> after Intro [Guitar 1] | despues del intro de la 
 [Guitarra 1]

//////////////////////   3) WATCH THE WORLD    ///////////////////////////
Intro [Guitar 1]
1 --------------------------------------------------------------|
2 ------000----------000----------------------------------------|
3 -444444444/666-444444444/666-44444444444-888-444-------3/444--|
4 --------------------------------------------------------------|
5 -222222222/444-222222222/444-22222222222-666-222-1111111/222--|
6 --------------------------------------------------------------|
   .'.''.''.  .' .'.''.''.  .' .'.''.''.xx .'. '.' .'.'.'.  .'
Intro [Guitar 2]
1 --------------------------------------------------------------|
2 --------------------------------------------------------------|
3 --------------------------------------------------------------|
4 -9-9-9---------4-4-4---------2-2-2----------------------------|
5 --------------------------------------------------------------|
6 -7-7-7---------6-6-6---------0-0-0----------------------------|

Verse [Guitar 1]
1 --------------------------------------------------------------|
2 --------------------------------------------------------------|
3 --------------------------------------------------------------|
4 -9-9-9---------4-4-4---------6-6-6---------2-2-2--------------|
5 --------------------------------------------------------------|
6 -7-7-7---------6-6-6---------4-4-4---------0-0-0--------------|

Verse [Guitar 2]
1 -----2-------------2--------------2-------------2-------------|
2 -0-------------0-------------0-------------0------------------|
3 --------------------------------------------------------------|
4 --------------------------------------------------------------|
5 --------------------------------------------------------------|
6 --------------------------------------------------------------|

Chorus [Guitar 1]
1 --------------------|
2 --------------------|
3 -4444444444444------|  Repeat that chord all chorus | 
4 --------------------|  Repetir este acorde todo el coro
5 -2222222222222------|
6 --------------------|
   .'.''..''.'.'
Chorus [Guitar 2]
1 --------------------------------------------------------------|
2 --------------------------------------------------------------|
3 --------------------------------------------------------------|
4 -9-9-9---------4-4-4---------2-2-2---------2-2-2--------------|
5 --------------------------------------------------------------|
6 -7-7-7---------6-6-6---------0-0-0---------0-0-0--------------|

Interlude 1 [Guitar 1]
1 --------------------------------|
2 --------------------------------|
3 -444444---333-------------------|
4 -444444-4-333-------------------|
5 -222222-4-111-------------------|
6 --------2-----------------------|

Interlude 1 [Guitar 2]
1 --------------------------------|
2 --------------------------------|
3 --------------99999999----------|
4 -999999---988-------------------|
5 --------------77777777----------|
6 --------7-----------------------|

Interlude 2 [Guitar 1]
1----------------|
2 ---------------|
3 -44---4-6-4----|
4 ----4-------4--|
5 ---------------|
6 ---------------|

Interlude 2 [Guitar 2]
1 ------------------------------|
2 -444444444444-555555555555----|
3 -444444444444-444444444444----|
4 -111111111111-222222222222----|
5 ------------------------------|
6 ------------------------------|
   ..''..''.'.' ..''..''.'.'
SONG ORDER
    Intro [Guitar 1 & 2] x2
    Verse [Guitar1] x4   & verse [Guitar2] x4
    Intro x1
    Verse
    Chorus [Guitar 1]  &  Chorus [Guitar 2] x4
    Interlude 1 [Guitar 1 & 2] x2
    Interlude 2 [Guitar 1] x8  & Interlude [Guitar 2] x4
    Chorus

/////////////////////////   4) TINY VOICES   //////////////////////////////
Intro [Guitar 1]
1 ----------------------------|
2 -----------99---------------|
3 -2-2222222-------8888/77----|
4 -2-2222222-66-0--8888/77----|
5 -0-0000000----0--6666/55----|
6 ----------------------------|
     *******

Verse [Guitar 1]
1 ---------------------|
2 ---------------------|
3 ---------------------|
4 -777777777777777-----|
5 ---------------------|
6 -555555555555555-----|

Chorus                               Post-chorus 
1 --------------------------------------| |-----|
2 --------------------------------------| |-----|
3 --------88----------------------------| |--x--|
4 -222222----0-22222222-6666666-7777777-| |--x--|
5 -222222-66-0-22222222-6666666-7777777-| |--x--|
6 -000000------00000000-4444444-5555555-| |--x--|

Interlude 1 [Guitar 1]
1 ---------------------------------|
2 ---------------------------------|
3 ---------------------------------|
4 -----2-----2---------4-----4-----| x2
5 ---2-----2-----2---2-----2-----2-|
6 -0-----0-----0---0-----0-----0---|

1 ----------------------------------|
2 ----------------------------------|
3 ----------------------------------|
4 -----2-----2---------4-----4------| x2
5 ---2-----2-----2---2-----2-----2--|
6 -5-----5-----5---5-----5-----5----|

Interlude 1 [Guitar 2]
1 -----------------------------|
2 -5--------4------5---------5-|
3 -----------------------------|
4 -----------------------------|
5 -----------------------------|
6 -----------------------------|

Interlude 2 [Guitar 2]
1 ---------------------------|
2 ---------------------------|
3 ---------------------------|
4 ---------------------------|
5 ---------------------------|
6 -0-------4-------5------5--|
SONG ORDER
 intro x4
 verse x8
 chorus x2
 post-chorus x30
 intro x2
 verse x4
 chorus x2
 post-chorus x30
 interlude 1 [Guitar 1 & 2] x2
 interlude 2 [Guitar 2] x2
 interlude 1 [Guitar 1 & 2] x2
 chorus x4
 post-chorus x30

////////////////////////   5) CAT LIKE THIEF   //////////////////////////
Riff A [Guitar 2]
1 -----------------------------------------------------|
2 -----------------------------------------------------|
3 -----------------------------------------------------|
4 ----7-----7-----7-----7-----7-----7-----7-----7------|
5 -00---000---044---444---455---555---555---555---5----|
6 -----------------------------------------------------|
Guitar 2 play the same thing for the rest of the song. | Guitarra 2 repite lo mismo
toda la cancion.

Riff A [Guitar 1]
1 ------0------0-------0-------0-------0-------0-------0-------0---|
2 ------10-----10------10------10------10------10------10------10--|
3 -----------------------------------------------------------------|
4 ----------------1111----1111----1212----1212----1212----1212-----|
5 -1212---1212-----------------------------------------------------|
6 -------------------------------------------  --------------------|
Play this chord when [Guitar 2] play 7. | tocar esto cuando [Guitarra 2] toca 7.

Chorus [Guitar 1] wierd guitar effect | con efecto raro
1 -------|
2 -------|
3 -------|
4 --7----|
5 -------|
6 --5----|
Play this when the [Guitar 2] play the chorus. | Esto cuando [Guitarra 2] toca el 
coro.

Final Chorus [Guitar 1]
1 ------12--------12----9----9----9----9------|
2 -1010----101010----10---10---10---10---10---|
3 --------------------------------------------|
4 --------------------------------------------|
5 --------------------------------------------|
6 --------------------------------------------|
Play this on the final chorus. | Tocar esto en le ultimo coro.

///////////////////////////   6) AND I   //////////////////////////
Intro [Guitar 1]
1 ------------------------------------------------------|
2 ------------------------------------------------------|
3 -1111111111111111111111-777-9999-777-11111111-777-99--|
4 -----------------------0--------0------------0--------|
5 -9 9 9 9 9 9 9 9 9 9 9-0555-77770555-9 9 9 9-0555-77--|
6 ------------------------------------------------------|

Intro [Guitar 2]
1 --------------------------------------------------|
2 --------------------------------------------------|
3 -7777777777777777-44444444------------------------|
4 -7777777777777777-44444444-555555555--------------|
5 -5555555555555555022222222-555555555--------------|
6 -----------------0---------333333333--------------|

Verse [Guitar 1]
1 -----|
2 -----|
3 --7--|
4 -----|
5 --5--|
6 -----|

Chorus [Guitar 1]
1 -----------------------------------------|
2 -----------------------------------------|
3 --77777-------------77777777777777777----|
4 ----------4------------------------------|
5 --55555-57----------55555555555555555----|
6 -----------------------------------------|
[ Tab from: http://www.guitartabs.cc/tabs/b/box_car_racer/boxcar_racer_tab_ver_2.html ]
Chorus [Guitar 2]
1 ----------------------------------------|
2 ----------------------------------------|
3 --777777777777777-2-44444444------------|
4 --777777777777777-2-44444444-55555555---|
5 --555555555555555-0-22222222-55555555---|
6 -----------------------------33333333---|


Interlude [Guitar 1]
1 ---------------------------------------|
2 ---------------------------------------|
3 ---------------------------------------|
4 --7-7-777------------94-4-444----------|
5 --5-5-555------------72-2-222----------|
6 ---------------------------------------|
    * * ***            ** * ***
Interlude [Guitar 2]
1 ---------------------------------------|
2 ---------------------------------------|
3 ---------------------------------------|
4 -----------79-9-999------------4-------|
5 -----------57-7-777------------25-555--|
6 --------------------------------3-333--|
             ** * ***            ** ***
Final chorus Pt1 [Guitar 2]
1 -----|
2 -----|
3 --7--|
4 -----|
5 --5--|
6 -----|

Final chorus Pt2 [Guitar 2]
1 -------------------------------------------------------|
2 -------------------------------------------------------|
3 --77777777777777777-1111111111111111-1212121212121212--|
4 --77777777777777777-1111111111111111-1212121212121212--|
5 --55555555555555555-9 9 9 9 9 9 9 9--1010101010101010--|
6 -------------------------------------------------------|

SONG ORDER
 Intro x4
 Intro [Guitar 1 & 2] x2
 verse xmany times | muchas veces
 Chorus [Guitar 1 & 2] x2
 Verse xmany times | muchas veces
 Chorus [Guitar 1 & 2] x4
 Interlude [Guitar 1 & 2] x4 
 Chorus [Guitar 1 & 2] x4
 Verse xall the final chorus | todo el coro final
 Final chorus Pt1 [Guitar 2] | i dont know how many times, listen the song 
 | no se cuantas veces, escucha la cancion
 Chorus [Guitar 2] x1
 final chorus Pt2 [Guitar 2]

/////////////////////////   7)LETTERS TO GOD   ////////////////////////////
Intro
1 -------------------------|
2 -------------------------|
3 -00000000----0000000000--|
4 -222222222/4-5555555555--|
5 -222222222/4-5555555555--|
6 -000000000/2-3333333333--|
   ..''..''.   ..''..'...
Verse
1 -------------------------|
2 -------------------------|
3 -------------------------|
4 -22222222222-5555555555--|
5 -22222222222-5555555555--|
6 -00000000000-3333333333--|
   ..''..'''.. ..''..'...
Chorus
1 ----------------------------------------------------|
2 ----------------------------------------------------|
3 -000000000000-555555555555-000000000000-22222222222-|
4 -222222222222-555555555555-555555555555-22222222222-|
5 -222222222222-333333333333-555555555555-00000000000-|
6 -000000000000--------------333333333333-------------|

1 ----------------------------------------------------|
2 ----------------------------------------------------|
3 -000000000000-555555555555-000000000000-77777777777-|
4 -222222222222-555555555555-555555555555-77777777777-|
5 -222222222222-333333333333-555555555555-55555555555-|
6 -000000000000--------------333333333333-------------|

Interlude
1 ----------------------------------------------------|
2 ----------------------------------------------------|
3 ----------------------------------------------------|
4 -555555555555-777777777777-999999999999-77777777777-|
5 -555555555555-777777777777-999999999999-77777777777-|
6 -333333333333-555555555555-777777777777-55555555555-|

1 -----------------------------------------------------------|
2 -----------------------------------------------------------|
3 -----------------------------------------------------------|
4 -555555555555-777777777777-99999999999-101010101010101010--|
5 -555555555555-777777777777-99999999999-101010101010101010--|
6 -333333333333-555555555555-77777777777-8 8 8 8 8 8 8 8 8---|

Heavy Guitar Pt1
1 ----------------------------|
2 ----------------------------|
3 -0000-0000-----0000-0000-00-|
4 -2222-2222-2/4-5555-5555-55-|
5 -2222-2222-2/4-5555-5555-55-|
6 -0000-0000-0/2-3333-3333-33-|

Heavy Guitar Pt2
1 ----------------------------|
2 ----------------------------|
3 -0000000000-----00000000000-|
4 -2222222222-2/4-55555555555-|
5 -2222222222-2/4-55555555555-|
6 -0000000000-0/2-33333333333-|
SONG ORDER
 Intro x2
 Verse x4
 Chorus x2
 Intro x2
 Verse x4
 Chorus x2
 Interlude = Chorus x1
 Chorus x1
 Interlude Pt2 x1
 Heavy Guitar Pt1 x2
 Heavy Guitar Pt2 x2
 Chorus x4 Whit heavy distorn | con distorcion pesada

///////////////////////////   8)MY FIRST PUNK SONG   //////////////////////////
Riff A
1 ---------------------|
2 ---------------------|
3 -----------444----7--|
4 --77777777-444-66-7--|
5 --77777777-666-66-5--|
6 --55555555-----44----|

Riff b
1 ---------------------|
2 ---------------------|
3 -----------66-----7--|
4 --22222222-66--66-7--|
5 --22222222-44--66-5--|
6 --00000000---- 44----|

Riff C 
1 -----|
2 -----|
3 -----|
4 --2--|
5 --2--|
6 --0--|

SONG ORDER
 Riff A x6
 Riff b x4
 Riff A x2
 Riff C xmany times | muchas veces
 Riff A x2
 Riff C xmany times | muchas veces

///////////////////////////////   9) SORROW   /////////////////////////////
Intro
1 ---------------------------|
2 ---------------------------|
3 ---------------------------|
4 ------2------------2-------|
5 -5-4-0-0-5-4--5-4-0-0-5-4--|
6 ---------------------------|

Verse [Guitar 1]
1 ---------------------------------------|
2 ---------------------------------------|
3 ---------------------------------------|
4 --77777777-66666666-44444444-66666666--|
5 ---------------------------------------|
6 --55555555-44444444-22222222-44444444--|

Chorus [Guitar 1]
1 ---------------------------------------|
2 ---------------------------------------|
3 ---------------------------------------|
4 --77777777-66666666-44444444-66666666--|
5 --77777777-66666666-44444444-66666666--|
6 --55555555-44444444-22222222-44444444--|

Chorus [Guitar 2]
1 ---------------------------------------------------------|
2 --10101010----10101010101010101010-10101010----99999999--|
3 ---------------------------------------------------------|
4 --7 7 7 7-----7 7 7 7 7 7 7-7 7 7--7 7 7 7-----66666666--|
5 ----------000------------------------------000-----------|
6 ---------------------------------------------------------|

Interlude [Guitar 1]
1 ---------------------------------------|
2 ---------------------------------------|
3 --676-676-676-676----------------------|
4 -----7---7---7---7---------------------|
5 ---------------------------------------|
6 ---------------------------------------|

SONG ORDER
 Intro X8
 verse x2
 intro x6
 verse x2
 Chorus [Guitar 1 & 2] x2
 intro x6
 verse x2
 Chorus x4
 interlude xall interlude, 8 times (i guess) |
 por todo el intermedio, son 8 veces (creo)
 chorus x4

////////////////////////////   10) THERE IS   ///////////////////////////
Intro [Guitar 1]
1 ----------------------------------------------------|
2 ----------------------------------------------------|
3 -888888888888-666666666666-444444444444-66666-33333-|
4 -888888888888-666666666666-444444444444-66666-33333-|    ..........   ........
5 -666666666666-444444444444-222222222222-44444-11111-|    |. = down|   |' = up|
6 ----------------------------------------------------|    ''''''''''   ''''''''
   ..''..'''.'. ..''..'''.'. ..''..'''.'. ..''. ..'.. 
Riff A [Guitar 2]
1 ---------------|
2 ---------------|
3 -444444444444--|
4 -444444444444--|
5 -222222222222--|
6 ---------------|
   ..''..'''.'.
Verse [Guitar 1]
1 -------------------------------------------------|
2 -------------------------------------------------|
3 -44444444444-44444444444-44444444444-44444444444-|
4 -44444444444-44444444444-44444444444-44444444444-|
5 -22222222222-------------------------------------|
6 -------------22222222222-44444444444-00000000000-|
   ..''..''.'. ..''..''.'. ..''..''.'. ..''..''.'.
Chorus [Guitar 1]
1 -------------------------------------------------|
2 -------------------------------------------------|
3 -44444444444-44444444444-44444444444-44444444444-|
4 -44444444444-44444444444-44444444444-44444444444-|
5 -22222222222-------------------------------------|
6 -------------22222222222-44444444444-22222222222-|
   ..''..''.'. ..''..''.'. ..''..''.'. ..''..''.'.
Chorus [Guitar 2]
1 -------------|
2 -------2-----|
3 -4-4-4----4--|
4 -------------|
5 -------------|
6 -------------|

Interlude [Guitar 1]
1 ------------------------------------------------------------|
2 ------------------------------------------------------------|
3 -88888888888-99999999999-1111111111111111111111-99999999999-|
4 -88888888888-99999999999-1111111111111111111111-99999999999-|
5 -66666666666-77777777777-9 9 9 9 9 9 9 9 9 9 9--77777777777-|
6 ------------------------------------------------------------|

1 --------------------------------------------------|
2 --------------------------------------------------|
3 -88888888888-99999999999-88888888888-66666666666--|
4 -88888888888-99999999999-88888888888-66666666666--|
5 -66666666666-77777777777-66666666666-44444444444--|
6 --------------------------------------------------|
 
Final chorus [Guitar 1]
1 -------------------------|
2 -------------------------|
3 -88888888888-66666666666-|
4 -88888888888-66666666666-|
5 -66666666666-44444444444-|
6 -------------------------|
   ..''..''.'. .''..''.'.
SONG ORDER
 intro [Guitar 1] x2
 intro [Guitar 1] x1  &  riff A [Guitar 2] x4
 verse [Guitar 1] x4  &  riff A [Guitar 2] x16
 chorus [Guitar 1] x4  &  Chorus [Guitar 2] x8
 intro [Guitar 1] x2  &  riff A [Guitar 2] x8
 verse [Guitar 1] x4  &  riff A [Guitar 2] x16
 chorus [Guitar 1] x4  &  Chorus [Guitar 2] x8
 interlude [Guitar 1] x1  &  riff A [Guitar 2] x8
 chorus [Guitar 1] x2
 final Chorus [Guitar 1] x4  &  chorus [Guitar 2] x8

//////////////////////////   11) THE END WHIT YOU   /////////////////////////
Intro [Guitar 1]
1 -----|
2 -----|
3 -6---|
4 -----|
5 -4---|
6 -----|

Intro 2 [Guitar 1]
1 ---------------------|
2 ---------------------|
3 ------------------6--|
4 -444-6-77777--6-7----|
5 ------------------4--|
6 -222-4-55555--4-5----|

Intro 2 [Guitar 2]
1 ---------------------|
2 ---------------------|
3 ------------------6--|
4 -444-6-7777777777-6--|
5 -444-6-7777777777-4--|
6 -222-4-5555555555----|

Verse [Guitar 1]
1 ---------------------|
2 ---------------------|
3 ---------------------|
4 --------------77-----|
5 -77777777-444-55-76--|
6 -55555555-222----54--|
   ******** *** ** **

Chorus [Guitar 1]
1 ---------------------------------------|
2 ---------------------------------------|
3 --------------------------------7777---|
4 -7777777777777777-66666666-4444-7777---|
5 -7777777777777777-66666666-4444-5555---|
6 -5555555555555555-44444444-2222--------|

Chorus [Guitar 2]
1 ---------------------------------------|
2 ---------------------------------------|
3 ---------------------------------------|
4 -7777777777777777-77777777------7777---|
5 ---------------------------4444-5555---|
6 -5555555555555555-55555555-2222--------|

Interlude [Guitar 1]
1 ------------------------|
2 ------------------------|
3 -----------------6/7/4--|
4 -----4/6/7--------------|
5 -------------4-4-4/5/2--|
6 -2-2-2/4/5--------------|

Interlude [Guitar 2]
1 ------------------------|
2 ------------------------|
3 -------------6----------|
4 -4----------------------|
5 -------------4----------|
6 -2----------------------|

SONG ORDER
 intro x30
 intro 2 x1
 intro 2 [Guitar 1 & 2] x3
 verse x8
 intro x15
 chorus x2
 intro 2 [Guitar 1 & 2] x2
 verse x8
 intro x15
 chorus x4
 interlude [Guitar 1 & 2] x6
 chorus x4
 intro 2 x30

//////////////////////////   12) ELEVATOR //////////////////////////////

Riff A
1 -------------------------------------------|
2 -------------------------------0-----------| Repeat that all song | repetir
3 -----0-----0----0--0-0 0 0 0 0 0-00-00-----| esto toda la cancion
4 -----4/5---5----5--5/10101010109-99-99-----|
5 -------------------------------------------|
6 -33333---3---33---3--8 8 8 8 8 8-88-77-----|

////////////////////////   13) INSTRUMENTAL   /////////////////////////

This song is played whit wierd guitar effects,
the true is that Guitar 2 Riff A only plays A5,
but because of the effect it sounds like the riff that I tabbed.

Esta cancion se toca con efectos de guitarra raros,
en realidad Guitarra 2 Riff A solo toca LA5,
pero el efecto hace que suene como el riff que saque.

Riff A [Guitar 1]
1 -5555-5-4/5-0--40-4/5--5555-5/7-0-50-4/5------|
2 ----------------------------------------------|
3 ----------------------------------------------|
4 ----------------------------------------------|
5 ----------------------------------------------|
6 ----------------------------------------------|

Riff A [Guitar 2]
1 -----------------------------------|
2 -----------------------------------|
3 -----------------------------------|
4 -----------------------------------|
5 -44------44------44------44--------|
6 ---555555--444444--222222--000000--|
   ********************************

Riff A Pt2 [Guitar 2] 

1 -5-4/5-0--0-4/5--------5555-04/5-5-04/5-4-5/7-04/5-------7/9---7---04/5---4/5-4/5-4/54/54/54/5--|
2 ------------------------------------------------------------------------------------------------|
3 ------------------------------------------------------------------------------------------------|
4 ------------------------------------------------------------------------------------------------|
5 ------------------------------------------------------------------------------------------------|
6 ------------------------------------------------------------------------------------------------|

Riff B [Guitar 1]
1 ------------------------------------------|
2 ------------------------------------------|
3 ------8888------9999----------------------|
4 -2222-8888-2222-9999-2222-6666-2222-7777--|
5 -2222-6666-2222-7777-2222-6666-2222-7777--|
6 -0000------0000------0000-4444-0000-5555--|

Riff B [Guitar 2]
1 ------111111----121212----------------------|
2 --------------------------999-------101010--|
3 ------8 8 8-----9 9 9-----------------------|
4 --------------------------666-------7 7 7---|
5 --------------------------------------------|
6 --------------------------------------------|


SONG ORDER
 riff A [Guitar 1] x1 [Guitar 2] x4
 riff B [Guitar 1] & [Guitar 2] x2 
 riff A Pt2 [Guitar 1] x1 [Guitar 2] x4
 riff B [Guitar 1] & [Guitar 2] x2 
 riff A [Guitar 2] x1 
 riff B [Guitar 1] & [Guitar 2] x4 
***************************************************************************
Ok. why another tab? bacause i saw the first tab that i made and it was terribly wrong, 
(i made it whit an acoustic guitar).
so i give to you a new one and this is 99.9% correct (something have to be wrong).

is my english ok?

Bien. ¿Por que otro tab? por que vi el primer tab que hice y estaba terriblemente mal,
(lo hice con una guitarra acustica).
asi que, les entrego este nuevo que esta 99.9% correcto (algo tiene que estar mal).

¿is mai inglish okey?

¡¡Saludos desde el corazon de sudamerica.

e-mail:
jaca146@latinmail.com
Comments