Box Car Racer - And I Chords & Tabs

 

And I Chords & Tabs

Box Car Racer Chords & Tabs

Version: 1 Type: Tab 0 ratings
1 star 2 stars 3 stars 4 stars 5 stars
comments

And I Tab

   
Intro
Gtr1(6x):
E-----------------------------------------------------------
B-----------------------------------------------------------
G-11-11-11-11-11--7-7---9-9-9-9---7-7---11-11-11-11---7-7-7-  
D-x--x--x--x--x---x-x---x-x-x-x---x-x---x--x--x--x----x-x-x-
A-9--9--9--9--9---5-5---7-7-7-7---5-5---9--9--9--9----5-5-5-
E-----------------------------------------------------------

Gtr2(2x):
(Comes in after gtr1 has played intro 4x)
E-------------------------------------------------------------
B-------------------------------------------------------------
G----------------------------------------------------------7--
D--7-7-7-7-7-7-//-9-9-9-9-9-9---4-4-4-4-4-4----------------7--
A--5-5-5-5-5-5-//-7-7-7-7-7-7---2-2-2-2-2-2---5-5-5-5-5-5--5--
E---------------------------------------------3-3-3-3-3-3-----

Verse
Gtr1(A lot of times):
....I am, lost in the crowd, I'm standing in line....
E----------
B----------
G----7-----
D----x-----
A----5-----
E----------

Chorus
Gtr1(2x):
....And I, want her, I need her, and you always....
E-----------------------------------------------------------------
B-----------------------------------------------------------------
G--7-7-7-7-7-7-//-11-11-11-11-11-11--9-9-9-9-9-9--7-7-7-7-7-7-----
D--x-x-x-x-x-x-//-x--x--x--x--x--x---x-x-x-x-x-x--x-x-x-x-x-x-----
A--5-5-5-5-5-5-//-9--9--9--9--9--9---7-7-7-7-7-7--5-5-5-5-5-5-----
E-----------------------------------------------------------------
[ Tab from: http://www.guitartabs.cc/tabs/b/box_car_racer/and_i_tab.html ]
Gtr(2x):
E-------------------------------------------------------------
B-------------------------------------------------------------
G----------------------------------------------------------7--
D--7-7-7-7-7-7-//-9-9-9-9-9-9---4-4-4-4-4-4----------------7--
A--5-5-5-5-5-5-//-7-7-7-7-7-7---2-2-2-2-2-2---5-5-5-5-5-5--5--
E---------------------------------------------3-3-3-3-3-3-----

Continue with..
Verse(1x)
Chorus(4x)
(Gay Effect is played)

Bridge:
Gtr1(4x)
E-------------------------------------------------------------
B-------------------------------------------------------------
G-------------------------------------------------------------
D--7-7--7-7-7---9-9-9--9-9-9---4-4-4--4-4-4-------------------
A--5-5--5-5-5---7-7-7--7-7-7---2-2-2--2-2-2---5-5-5--5-5-5----
E---------------------------------------------3-3-3--3-3-3----
p.m..  .....   .....  .....   .....  .....   .....  .....

Continue with..
Chorus(4x)

Outro
Gtr1(2x):
....And I, want her, I need her, I want her, I need her....
E-------------------------------------------------------------------------
B-------------------------------------------------------------------------
G--7-7-7-7-7-7-7-7-7-7-7-7---11-11-11-11-11-11--9-9-9-9-9-9--7-7-7-7-7-7--
D--x-x-x-x-x-x-x-x-x-x-x-x---x--x--x--x--x--x---x-x-x-x-x-x--x-x-x-x-x-x--
A--5-5-5-5-5-5-5-5-5-5-5-5---9--9--9--9--9--9---7-7-7-7-7-7--5-5-5-5-5-5--
E-------------------------------------------------------------------------

Gtr2(2x):
E-------------------------------------------------------
B-------------------------------------------------------
G-------------------------------------------------------
D--7-7-7-7-7-7-7-7-7-7-7-7---4-4-4-4-4-4----------------
A--5-5-5-5-5-5-5-5-5-5-5-5---2-2-2-2-2-2---5-5-5-5-5-5--
E------------------------------------------3-3-3-3-3-3--

End on
E---
B---
G-7-
D-7-
A-5-
E---
Comments