Box Car Racer - All Systems Go Chords & Tabs

 

All Systems Go Chords & Tabs

Box Car Racer Chords & Tabs

Version: 3 Type: Tab 0 ratings
1 star 2 stars 3 stars 4 stars 5 stars
comments

All Systems Go Tab

Wasup everyone!!! This tab is 99% right, because i spent 2 hours on it and finally 
figured out the outro that no one could do. So i hope you like it. It's a 5. Rate it.
Just Play it how i write it, its in the right order. I made it easy for you guys cause 
i know how much it sux when someone writes it and they dont put it in order.
Its in Standard Tuning.!!

           (light distortion)
e|----------------------------------|
B|----------------------------------|x2
G|----------------------------------|
D|---7-7-7-7----7-7-7----7-7-7-7-7--|
A|---7-7-7-7----7-7-7----7-7-7-7-7--|
E|---5-5-5-5----5-5-5----5-5-5-5-5--|



         (heavy distortion)
e|---------------------------------------------|
B|---------------------------------------------|x4
G|--------6-6-6--------------------------------|
D|-7-7-7--6-6-6--6-6-6--7-7-7--6-6-6--2--------|
A|-7-7-7--4-4-4--6-6-6--7-7-7--6-6-6--2--------|
E|-5-5-5---------4-4-4--5-5-5--4-4-4--0--------|

               (light distortion)
e|---------------------------------|
B|---------------------------------|x4
G|---------6-x6--------------------|
D|---7-x6--x--------4-x6--6-x6-----|
A|---x-----4--------x-----x--------|
E|---5-----------0--2-----4--------|

           (heavy distortion)
e|---------------------------------------|
B|---------------------------------------|x2
G|------5-x7----5-x7---------------------|
D|------5-------5-------7-x7----3-x7-----|
A|------3-------2-------7-------3--------|
E|----------------------5-------1--------|

        (light distortion)
e|----------------------------------|
B|----------------------------------|x1
G|----------------------------------|
D|---7-7-7-7----7-7-7----7-7-7-7-7--|
A|---7-7-7-7----7-7-7----7-7-7-7-7--|
E|---5-5-5-5----5-5-5----5-5-5-5-5--|


(heavy distortion)
e|---------------------------------------------|
B|---------------------------------------------|x2
G|--------6-6-6--------------------------------|
D|-7-7-7--6-6-6--6-6-6--7-7-7--6-6-6--2--------|
A|-7-7-7--4-4-4--6-6-6--7-7-7--6-6-6--2--------|
E|-5-5-5---------4-4-4--5-5-5--4-4-4--0--------|

[ Tab from: http://www.guitartabs.cc/tabs/b/box_car_racer/all_systems_go_tab_ver_3.html ]
        (light distortion)
e|---------------------------------|
B|---------------------------------|x4
G|---------6-x6--------------------|
D|---7-x6--x--------4-x6--6-x6-----|
A|---x-----4--------x-----x--------|
E|---5-----------0--2-----4--------|


      (light distortion)
e|----------------------------------|
B|----------------------------------|x1
G|----------------------------------|
D|---7-7-7-7----7-7-7----7-7-7-7-7--|
A|---7-7-7-7----7-7-7----7-7-7-7-7--|
E|---5-5-5-5----5-5-5----5-5-5-5-5--|


         (heavy distortion)
e|---------------------------------------|
B|---------------------------------------|x4
G|------5-x7----5-x7---------------------|
D|------5-------5-------7-x7----3-x7-----|
A|------3-------2-------7-------3--------|
E|----------------------5-------1--------|



B|-------------------|listen to the songs to se how many 
G|-------------------|times to play it.
D|-------------------|
A|--------7-x16------|
E|--5-x16------------|
    *     *

                (Distortion)
e|--------------------------------------------------------|
B|--------------------------------------------------------|
G|--------------------------------------------------------|
D|--ok-this-is-kinda-hard-to-explain,-but-u---------------|
A|--press--your-fingers-ontu-7-and-let-go.----------------| 
E|---------------------------5----------------------------|


(heavy distortion)
e|---------------------------------------|
B|---------------------------------------|x4
G|------5-x7----5-x7---------------------|
D|------5-------5-------7-x7----3-x7-----|
A|------3-------2-------7-------3--------|
E|----------------------5-------1--------|

Ok this part is the one that people somehow can't figure out. Even though there 
are some harmonics in the background it still plays this.

(heavy distortion)
e|----------------------------------------------|
B|----------------------------------------------| 
G|--------------6-X3----------------------------|
D|-7-LET-RING---6----6-X3-7-X2--6-X2-2-X2-------|
A|-7------------4----6----7-----6----2----------|
E|-5-----------------4----5-----4----0----------|

play that 4 times but the fourth time end it with 
D|----7-----|
A|----7-----|
E|----5-----|

Thats it , rate it and dont hate it. KEEP ON ROCKIN'!!!
Comments