Box Car Racer - All Systems Go Chords & Tabs

 

All Systems Go Chords & Tabs

Box Car Racer Chords & Tabs

Version: 2 Type: Bass Tab 0 ratings
1 star 2 stars 3 stars 4 stars 5 stars
comments

All Systems Go Bass Tab

Title: All Systems Go
Artist: Boxcar Racer
Tabbed by: Blake Rakoczi
E-Mail: effromtheretardedrabbit@hotmail.com

~ = Let Ring

Intro - Note: Wait for guitar to play its riff by itself.  Then, continue.
G|-------------------------------------------------------------------
D|-------------------------------------------------------------------
A|--------4-4-4------------------------------------------------------ x4
E|-5-5-5---------4-4-4--5-5-5--4-4-4--5-5----------------------------

First Verse - Note: You don't play anything here.

Chorus
G|-------------------------------------------------------------------
D|-------------------------------------------------------------------
A|-3-3-3-3-3-3-3-3--2-2-2-2-2-2-2-2---------------------------------- x2
E|-----------------------------------5-5-5-5-5-5-5-5--1-1-1-1-1-1-1-1

Intro - Note: Wait for guitar to play its riff again. Then, continue.
G|-------------------------------------------------------------------
D|-------------------------------------------------------------------
A|--------4-4-4------------------------------------------------------ x2
E|-5-5-5---------4-4-4--5-5-5--4-4-4--5-5----------------------------

Second Verse - Note: You don't play anything here.
[ Tab from: http://www.guitartabs.cc/tabs/b/box_car_racer/all_systems_go_btab_ver_2.html ]
Chorus - Note: Wait for guitar to play its special riff, and then, continue.
G|-------------------------------------------------------------------
D|-------------------------------------------------------------------
A|-3-3-3-3-3-3-3-3--2-2-2-2-2-2-2-2---------------------------------- x4
E|-----------------------------------5-5-5-5-5-5-5-5--1-1-1-1-1-1-1-1

Bridge - Either this or nothing.
G|-------------------------------------------------------------------
D|-------------------------------------------------------------------
A|------------------------------------------------------------------- x4
E|-5-5-5-5-5-5-5-5-5-5-5-5-5-5-5-5-5-5-5-5-5-5-5-5-5-5-5-5-5~~~~~~~~-

Chorus
G|-------------------------------------------------------------------
D|-------------------------------------------------------------------
A|-3-3-3-3-3-3-3-3--2-2-2-2-2-2-2-2---------------------------------- x4
E|-----------------------------------5-5-5-5-5-5-5-5--1-1-1-1-1-1-1-1

Ending - Note: Guitar plays the intro twice, and then you come in with this.
G|-------------------------------------------------------------------
D|-------------------------------------------------------------------
A|--------4-4-4------------------------------------------------------ x1
E|-5-5-5---------4-4-4--5-5-5--4-4-4--5-5----------------------------

G|-------------------------------------------------------------------
D|-------------------------------------------------------------------
A|--------4-4-4------------------------------------------------------ x1
E|-5-5-5---------4-4-4--5-5~~~~~~~~----------------------------------
Comments