Bowling For Soup - Sad Sad Situation Chords & Tabs

 

Sad Sad Situation Chords & Tabs

Bowling For Soup Chords & Tabs

Version: 1 Type: Bass Tab 0 ratings
1 star 2 stars 3 stars 4 stars 5 stars
comments

Sad Sad Situation Bass Tab

----------------------------------------------------------------------------
                     Sad sad situation - Bowling For Soup
----------------------------------------------------------------------------
Tabbed By : The Evil Tortex 
e-mail: Christhebassman@hotmail.com

Tuning : Standard (EADG)

Verse
G|----------------------------------------|
D|----------------------------------------|
A|-55555555-000000000000000000000000------|
E|----------------------------------------|

G|----------------------------------------|
D|----------------------------------------|
A|-5555555-00000000-----------------------|
E|----------------------------------------|

G|----------------------------------------|
D|----------------------------------------|
A|-55555555-00000000-55555555-00000000----|
E|----------------------------------------|

G|----------------------------------------|
D|----------2-0-2-0-2-0-2-0---------------|
A|----------------------------------------|
E|-00000000-------------------------------|

Chorus1
G|----------------------------------------|
D|---------------------------------4540---|
A|-00000000-33333333----------5555--------|
E|-------------------33333333-------------|

G|----------------------------------------|
D|----------------------------------------|
A|-00000000-33333333----------55555555----|
E|-------------------33333333-------------|

G|----------------------------------------|
D|----------------------------------------|
A|-0000000000000-555----------------------|
E|----------------------------------------|

Bridge
G|----------------------------------------|
D|----------------------------------------|
A|-00000000-3----------2-2420------0------|
E|-----------1-20-2-22--------0-00---2420-|

G|----------------------------------------|
D|----------------------------------------|
A|------2-2420------0---------------------|
E|-2-22--------0-00---2420----------------|
[ Tab from: http://www.guitartabs.cc/tabs/b/bowling_for_soup/sad_sad_situation_btab.html ]
G|----------------------------------------|
D|----------------------------------------|
A|----------22222222----------00000000----|
E|-22222222----------00000000-------------|

G|----------------------------------------|
D|----------------------------------------|
A|----------22222222----------------------|
E|-22222222-------------------------------|

G|----------------------------------------|
D|----------------------------------------|
A|-5555555555555555555555-----------------|
E|----------------------------------------|

Chorus2
G|----------------------------------------|
D|---------------------------------4540---|
A|-00000000-33333333----------5555--------|
E|-------------------33333333-------------|

G|----------------------------------------|
D|----------------------------------------|
A|-00000000-33333333----------05-5-5------|
E|-------------------33333333-------------|

G|----------------------------------------|
D|----------------------------------------|
A|-00000000-33333333----------55555555----|
E|-------------------33333333-------------|

G|----------------------------------------|
D|----------------------------------------|
A|-00000000-33333333----------55555555----|
E|-------------------33333333-------------|

G|----------------------------------------|
D|----------------------------------------|
A|-0000000000000-555-0000000000000-555----|
E|----------------------------------------|

G|----------------------------------------|
D|----------------------------------------|
A|-00000000-3-----------------------------|
E|-----------1-20-222---------------------|

Song Structure:
Verse x1
Chorus1 x1
Verse x1
Chorus1 x1
Bridge x1
Chorus2 x1

I couldn't believe that no one had attempted 
to tab this song, so shame on all you bassists
who have the CD "A hangover you don't deserve"!!!
Anyway, I have listened to this song over and over 
again, and I am 110% sure it is correct. But if 
you have and suggestions, then E-mail me at 
Christhebassman@hotmail.com. Anywho, Enjoy!!
Comments