Bowling For Soup - Running From Your Dad Chords & Tabs

 

Running From Your Dad Chords & Tabs

Bowling For Soup Chords & Tabs

Version: 1 Type: Tab 0 ratings
1 star 2 stars 3 stars 4 stars 5 stars
comments

Running From Your Dad Tab

Title: Running From Your Dad
By: Bowling For Soup

The Intro part isn't here but the rest is right

   Remember the....
e-----------------
b-----------------
g-----------------
d-7------------5--
a-7------------5--
e-5------------3--
Listen for timing

  I can still see your....
e------------------
b------------------
g------------------
d-3-------5--------
a-3-------5--------
e-1-------3--------
[ Tab from: http://www.guitartabs.cc/tabs/b/bowling_for_soup/running_from_your_dad_tab.html ]
  la da da da....
e-------------------
b-------------------
g--------5----------
d-7------5-----5----
a-7------3-----5----
e-5------------3----

Part right before next verse
e-------------------
b-------------------
g-------------------
d--3-------5-5------
a--3-------5-5------
e--1-------3-3------

   so i guess i'll just...
e-------------------
b-------------------
g----------5---4----
d--3---5---5---4----
a--3---5---3---2----
e--1---3------------

  he's starting to....
e-------------------
b-------------------
g------------5------
d--3----5----5------
a--3----5----3------
e--1----3-----------


I think thats about it
Comments