Bowling For Soup - Punk Rock 101 Chords & Tabs

 

Punk Rock 101 Chords & Tabs

Bowling For Soup Chords & Tabs

Version: 2 Type: Tab 0 ratings
1 star 2 stars 3 stars 4 stars 5 stars
comments

Punk Rock 101 Tab

   
I wanted my band to play this song.....but there wasn't a tab for it, so I
decided to tab it myself, its a great song! enjoy!  (Listen to the song for
the rhythm, becuase its almost impossible to show you the rhthm in tabs)

Intro Part A
e|-----------|
B|-----------|  x2
G|-----------|
D|--7777---9-|
A|--7777---9-|
E|--5555-0-7-|

Intro Part B
e|---------------------------------|
B|--9--9-9--5--5-5--10-9-5--10-9-5-|  x2
G|---------------------------------|
D|---------------------------------|
A|---------------------------------|
E|---------------------------------|

Verse (Bass Only)
G|-----------------------------|
D|-----------------------------|  x4
A|-----------------------------|
E|-0-0000-2-2222-5-5555-5-5555-|
[ Tab from: http://www.guitartabs.cc/tabs/b/bowling_for_soup/punk_rock_101_tab_ver_2.html ]
Pre Chorus ("Same song, Different Chorus")
e|------|
B|------|
G|------|
D|--4~~-|
A|--4~~-|
E|--2~~-|

Chorus ("It's stupid, contageous....etc.")
e|-----------------------------|
B|-----------------------------|  x4
G|-----------------------------|
D|-2-2222-4-4444-7-7777-7-7777-|
A|-2-2222-4-4444-7-7777-7-7777-|
E|-0-0000-2-2222-5-5555-5-5555-|

Bridge Part A
e|-----------------------------------------|
B|-----------------------------------------|  x1
G|-----------------------------------------|
D|--22--2-2---22--2-2---22--2-2---22222222-|
A|--22--2-2---22--2-2---22--2-2---22222222-|
E|--00--0-0---00--0-0---00--0-0---00000000-|

Bridge Part B (Bass Only)
G|------------------------|
D|------------------------|
A|-4--2--0-----------0--2-|
E|----------0--0--2-------|

Outro (Same as intro part A)

Elijah And Freddyie
Comments