Bowling For Soup - Pictures He Drew Chords & Tabs

 

Pictures He Drew Chords & Tabs

Bowling For Soup Chords & Tabs

Version: 2 Type: Tab 0 ratings
1 star 2 stars 3 stars 4 stars 5 stars
comments

Pictures He Drew Tab

Tabbed by: letty
Email: takeyourbooksandleave@hotmail.com

Tuning: standard

intro

e|---------------------------------------------------------------------------|
B|---------------------------------------------------------------------------|
G|9-9-9-9---------6-6-66-7-7-7-7-9-9-9-9---------6-6-66-7-7-7-7--------------|
D|9-9-9-9-9-9-9-9-6-6-66-7-7-7-7-9-9-9-9-9-9-9-9-6-6-66-7-7-7-7--------------|
A|7-7-7-7-9-9-9-9-4-4-44-5-5-5-5-7-7-7-7-9-9-9-9-4-4-44-5-5-5-5--------------|
E|--------7-7-7-7------------------------7-7-7-7-----------------------------|

Verse

e|---------------------------------------------------------------------------|
B|-------------------2222222222222222----------------------------------------|
G|---------44444444--2222222222222222----------------------------------------|
D|22222222-44444444--2222222222222222----------------------------------------|
A|22222222-22222222--0000000000000000----------------------------------------|
E|00000000-------------------------------------------------------------------|

(Intro)


(verse)


chorus (play x2)

e|---------------------------------------------------------------------------|
B|---------------------------------------------------------------------------|
G|9-9-9-9-----------------------77-9-9-9-9-9-9-9-9-6-6-66-7-7-7-7------------|
D|9-9-9-9-9-9-9-9-7-7-7-7-7-7-7-77-9-9-9-9-9-9-9-9-6-6-66-7-7-7-7------------|
A|7-7-7-7-9-9-9-9-7-7-7-7-7-7-7-55-7-7-7-7-9-9-9-9-4-4-44-5-5-5-5------------|
E|--------7-7-7-7-5-5-5-5-5-5-5------------7-7-7-7---------------------------|


(Verse)


chorus (last part changed)
[ Tab from: http://www.guitartabs.cc/tabs/b/bowling_for_soup/pictures_he_drew_tab_ver_2.html ]
e|---------------------------------------------------------------------------|
B|---------------------------------------------------------------------------|
G|9-9-9-9-----------------------77-9-9-9-9-9-9-9-9-6-6-66-7-7-7-7------------|
D|9-9-9-9-9-9-9-9-7-7-7-7-7-7-7-77-9-9-9-9-9-9-9-9-6-6-66-7-7-7-7------------|
A|7-7-7-7-9-9-9-9-7-7-7-7-7-7-7-55-7-7-7-7-9-9-9-9-4-4-44-5-5-5-5------------|
E|--------7-7-7-7-5-5-5-5-5-5-5------------7-7-7-7---------------------------|

e|---------------------------------------------------------------------------|
B|---------------------------------------------------------------------------|
G|9-9-9-9-----------------------77-9-9-9-9-9-9-9-9-6-6-66-5-5-5-5------------|
D|9-9-9-9-9-9-9-9-7-7-7-7-7-7-7-77-9-9-9-9-9-9-9-9-6-6-66-5-5-5-5------------|
A|7-7-7-7-9-9-9-9-7-7-7-7-7-7-7-55-7-7-7-7-9-9-9-9-4-4-44-3-3-3-3------------|
E|--------7-7-7-7-5-5-5-5-5-5-5------------7-7-7-7---------------------------|


bridge

e|---------------------------------------------------------------------------|
B|22222222---------------------------22222222--------------------------------|
G|22222222-44444444------------------22222222-44444444-----------------------|
D|22222222-44444444-2222222222222222-22222222-44444444-2222222222222222------|
A|00000000-22222222-2222222222222222-00000000-22222222-2222222222222222------|
E|------------------0000000000000000-------------------0000000000000000------|

e|-----------------------------------------------------------------------------|
B|22222222---------------------------------------------------------------------|
G|22222222-44444444-55555555-77777777------------------------------------------|
D|22222222-44444444-55555555-77777777------------------------------------------|
A|00000000-22222222-33333333-55555555------------------------------------------|
E|-----------------------------------------------------------------------------|

(Lead) (chorus is played in background)


(chorus)


outro

e|---------------------------------------------------------------------------|
B|9-9-9-9-9-9-9-9-6-6-66-7---------------------------------------------------|
G|9-9-9-9-9-9-9-9-6-6-66-7---------------------------------------------------|
D|7-7-7-7-9-9-9-9-4-4-44-5---------------------------------------------------|
A|--------7-7-7-7------------------------------------------------------------|
E|---------------------------------------------------------------------------|
  some.   just.   away
Comments