Bowling For Soup - Ohio Come Back To Texas Chords & Tabs

 

Ohio Come Back To Texas Chords & Tabs

Bowling For Soup Chords & Tabs

Version: 2 Type: Tab 0 ratings
1 star 2 stars 3 stars 4 stars 5 stars
comments

Ohio Come Back To Texas Tab

-------------------------------------------------------------------------------
			     ohio - bowling for soup
-------------------------------------------------------------------------------
Tabbed by: Letty
Email: takeyourbooksandleave@hotmail.com

(= palm mute)
(_ hold note or word)

Tuning: standard

intro
 (=============================palm mute=======================)
e|---------------------------------------------------------------------------|
B|---------------------------------------------------------------------------|
G|---------------------------------------------------------------------------|
D|4444444444444444-2222222222222222-------------------444444444--------------|
A|2222222222222222-2222222222222222-66666666-44444444-222222222--------------|
E|-----------------0000000000000000-44444444-22222222------------------------|
  break.           think.           clevel.  leeland  bank

e|---------------------------------------------------------------------------|
B|---------------------------------------------------------------------------|
G|---------------------------------------------------------------------------|
D|4444444444444444-2222222222222222-------------------4444444444444444-------|
A|2222222222222222-2222222222222222-66666666-44444444-2222222222222222-------|
E|-----------------0000000000000000-44444444-22222222------------------------|
  ohio.            rain.            carey.   see.     fame.
pre chorus

e|-0-----------------0-------------------------------------------------------|
B|-0-----------------0-------------------------------------------------------|
G|-0-----------------0-------------------------------------------------------|
D|22222222-44444444-22222222-44444444-------------------222222222------------|
A|22222222-22222222-22222222-22222222-66666666-44444444-222222222------------|
E|00000000----------00000000----------44444444-22222222-000000000------------|
  done.    whatev.  through. whoev.   county.  here.    you

chorus
[ Tab from: http://www.guitartabs.cc/tabs/b/bowling_for_soup/ohio_come_back_to_texas_tab_ver_2.html ]
e|---------------------------------------------------------------------------|
B|---------------------------------------------------------------------------|
G|---------------------------------------------------------------------------|
D|9999999999999999-44444444----------2222222222222222-44444444---------------|
A|7777777777777777-22222222-44444444-2222222222222222-22222222-44444444------|
E|0000000000000000----------22222222-0000000000000000----------22222222------|
  texas.           same.    away.    accent.          about.   state

e|---------------------------------------------------------------------------|
B|---------------------------------------------------------------------------|
G|---------------------------------------------------------------------------|
D|------------------22222222-44444444-66666666----------2222222222222222-----|
A|66666666-44444444-22222222-22222222-44444444-44444444-2222222222222222-----|
E|44444444-22222222-00000000-------------------22222222-0000000000000000-----|
  seat.   rodeo.   got.     saved.   mexican.  more.    anyway

(verse)

(pre chorus)

(chorus)

Bridge1

e|---------------------------------------------------------------------------|
B|---------------------------------------------------------------------------|
G|---------------------------------------------------------------------------|
D|2222222222222222-4444444444444444-2222222222222222-4444444444444444--------|
A|2222222222222222-2222222222222222-2222222222222222-2222222222222222--------|
E|0000000000000000------------------0000000000000000-------------------------|
  aikman.          nelson.          nasa.            bush twins.

e|---------------------------------------------------------------------------|
B|---------------------------------------------------------------------------|
G|---------------------------------------------------------------------------|
D|2222222222222222-4444444444444444-------------------22222222---------------|
A|2222222222222222-2222222222222222-66666666-44444444-22222222-44444444444---|
E|0000000000000000------------------44444444-22222222-00000000-22222222222---|
  pantera.         blue.            got.     takin'.  whole.   sign_______

 (chorus) x2

end

e|---------------------------------------------------------------------------|
B|---------------------------------------------------------------------------|
G|---------------------------------------------------------------------------|
D|66666666----------22222222---------4---------------------------------------|
A|44444444-44444444-22222222---4-6---2_______--------------------------------|
E|---------22222222-00000000___2-4-0-----------------------------------------|
  mexican. more.    anyway           yeah
Comments