Bowling For Soup - Ohio Come Back To Texas Chords & Tabs

 

Ohio Come Back To Texas Chords & Tabs

Bowling For Soup Chords & Tabs

Version: 1 Type: Bass Tab 0 ratings
1 star 2 stars 3 stars 4 stars 5 stars
comments

Ohio Come Back To Texas Bass Tab

----------------------------------------------------------------------------
          Ohio (Come Back to Texas) - Bowling for Soup
----------------------------------------------------------------------------

Tuning: Standard

pre chorus (There's nothing wrong with Ohio)
G|--------------------------------------------------------------------------|
D|------------------2222222222222222----------------------------------------|
A|-2222222222222222------------------------------------2222222222222222-----|
E|-----------------------------------44444444-22222222----------------------|

Pre Chorus (when you're done...)
G|--------------------------------------------------------------------------|
D|-22222222----------22222222----------------------------222222222----------|
A|----------22222222----------22222222--------------------------------------|
E|-------------------------------------44444444-22222222--------------------|

Chorus (Come back to texas)
G|--------------------------------------------------------------------------|
D|------------------------------------2222222222222222-------44-------------|
A|-7777777777777777-22222222---------------------------222222---------------|
E|---------------------------22222222---------------------------22222222----|
[ Tab from: http://www.guitartabs.cc/tabs/b/bowling_for_soup/ohio_come_back_to_texas_btab.html ]
Chorus pt. 2 (there's a seat for you at the rodeo)
G|--------------------------------------------------------------------------|
D|-------------------------------------66666666----------2222222222222222---|
A|----------------------------22222222--------------------------------------|
E|-44444444-22222222-00000000-------------------22222222--------------------|

do the verse part twice, but this variation is when the backup vocals say "So long, so 
it goes right with the words
G|--------------------------------------------------------------------------|
D|---4--2--4--2-------------------------------------------------------------|
A|--------------------------------------------------------------------------|
E|--------------------------------------------------------------------------|
then go Pre chorus, Chorus

Bridge (...want's you back)
G|--------------------------------------------------------------------------|
D|-2222222222222222------------------2222222222222222-----------------------|
A|------------------2222222222222222------------------2222222222222222------|
E|--------------------------------------------------------------------------|

G|--------------------------------------------------------------------------|
D|-2222222222222222------------------------------------22222222-------------|
A|------------------2222222222222222----------------------------44444444444-|
E|-----------------------------------44444444-22222222----------------------|

Nothing in the acoustic part, then do the chorus and end with:
G|--------------------------------------------------------------------------|
D|-------------------22222222-----------------------------------------------|
A|-44444444--------------------------2--------------------------------------|
E|----------22222222-------------4-0----------------------------------------|

Easy song. Enjoy!
Comments