Bowling For Soup - Hang On Chords & Tabs

 

Hang On Chords & Tabs

Bowling For Soup Chords & Tabs

Version: 1 Type: Tab 0 ratings
1 star 2 stars 3 stars 4 stars 5 stars
comments

Hang On Tab

Hang On
by Bowling For Soup
tabbed by dinsol's


Intro I:

|------------------------------------------------------------------------|
|------------------------------------------------------------------------|
|----7----7-7-----7777-----5----5-5-----5555-----------------------------|
|----7----7-7-----7777-----5----5-5-----5555-----5----5-5-----5555-------|
|-55-5-55-5-5-555-5555--33-3-33-3-3-333-3333-----5----5-5-----5555-------|
|---------------------------------------------33-3-33-3-3-333-3333-------|
PM..   ..     ...       ..   ..     ...       ..   ..     ...

continue...
[ Tab from: http://www.guitartabs.cc/tabs/b/bowling_for_soup/hang_on_tab.html ]
|----------------------------------|
|----------------------------------|
|-----7----7-7-----7777------------|
|-----7----7-7-----7777------------|
|--55-5-55-5-5-555-5555------------|
|----------------------------------|
PM ..   ..     ...

Pick slide....

Intro II:

|------------------------------------------------------------------------|
|------------------------------------------------------------------------|
|-77-7-77-7-7-777-7777--55-5-55-5-5-555-5555-----------------------------|
|-77-7-77-7-7-777-7777--55-5-55-5-5-555-5555--55-5-55-5-5-555-5555-------|
|-55-5-55-5-5-555-5555--33-3-33-3-3-333-3333--55-5-55-5-5-555-5555-------|
|---------------------------------------------33-3-33-3-3-333-3333-------|
PM..   ..     ...       ..   ..     ...       ..   ..     ...

continue...

|----------------------------------|
|----------------------------------|
|--77-7-77-7-7-777-7777------------|
|--77-7-77-7-7-777-7777------------|
|--55-5-55-5-5-555-5555------------|
|----------------------------------|
PM ..   ..     ...


By dinsol's...
Comments