Bowling For Soup - Girl All The Bad Guys Want Chords & Tabs

 

Girl All The Bad Guys Want Chords & Tabs

Bowling For Soup Chords & Tabs

Version: 9 Type: Tab 0 ratings
1 star 2 stars 3 stars 4 stars 5 stars
comments

Girl All The Bad Guys Want Tab

-------------------------------------------------------------------------------
GIRL ALL THE BAD GUYS WANT – BOWLING FOR SOUP
-------------------------------------------------------------------------------

Tabbed by: Carl Salji	
Email: carlsalji@hotmail.com

Tuning: Dropped D, DADGBE

Intro:
e|---------------------------------------------------------------------------|
B|---------------------------------------------------------------------------|
G|---------------------------------------------------------------------------|
D|------0------------0----------0--------------------------------------------|
A|---------4--0---------4—0---------4---0---2---0-------0--------------------|
D|--0------------4-----------5----------------------5------------------------|
^______________________________times 3_______________________________________^

First Verse:
e|---------------------------------------------------------------------------|
B|---------------------------------------------------------------------------|
G|---------------------------------------------------------------------------|
D|--0-0-0-0-0-0-0-0-4-4-4-4-5-5-5-5------------------------------------------|
A|--0-0-0-0-0-0-0-0-4-4-4-4-5-5-5-5------------------------------------------|
D|--0-0-0-0-0-0-0-0-4-4-4-4-5-5-5-5------------------------------------------|
(Eight o’clock Monday night and I’m waiting..)
^_____________________________times 4________________________________________^

e|---------------------------------------------------------------------------|
B|---------------------------------------------------------------------------|
G|---------------------------------------------------------------------------|
D|--9-----7----0----2----5----7----------------------------------------------|
A|--9-*8--7-*8-0-*8-2-*8-5-*8-7-*8-------------------------------------------|
D|--9-----7----0----2----5----7----------------------------------------------|
(And when she walks! All the wind blows and the angels sing..)

e|-------|
B|-------|
G|-------|
D|--0-0--|
A|--0-0--|  Coz she’s watchin wrestling
D|--0-0--|

e|-------|
B|-------|
G|-------|
D|--2-2--|
A|--2-2--|  Creamin ova tough guys
D|--2-2--|

e|-------|
B|-------|
G|-------|
D|--4-4--|
A|--4-4--|  Listenin to rap metal
D|--4-4--|






e|-------|
B|-------|
G|-------|
D|--5-5--|
A|--5-5--|  Turntables in her eyes
D|--5-5--|

e|---------------------------------------------------------------------------|
B|---------------------------------------------------------------------------|
G|---------------------------------------------------------------------------|
D|--2----4----5----4----5----7-----------------------------------------------|
A|--2-*8-4-*8-5-*8-4-*8-5-*8-7-*8--------------------------------------------|
D|--2----4----5----4----5----7-----------------------------------------------|
(It’s like a bad movie..)
[ Tab from: http://www.guitartabs.cc/tabs/b/bowling_for_soup/girl_all_the_bad_guys_want_tab_ver_9.html ]
Chorus-Same as intro
e|---------------------------------------------------------------------------|
B|---------------------------------------------------------------------------|
G|---------------------------------------------------------------------------|
D|------0------------0----------0--------------------------------------------|
A|---------4--0---------4—0---------4---0---2---0-------0--------------------|
D|--0------------4-----------5----------------------5------------------------|
^_______________________________times 2______________________________________^

Second verse:
Same as first verse.
Then..
e|---------------------------------------------------------------------------|
B|---------------------------------------------------------------------------|
G|---------------------------------------------------------------------------|
D|--2----4----5----4---------------------------------------------------------|
A|--2-*8-4-*8-5-*8-4-*8------------------------------------------------------|
D|--2----4----5----4---------------------------------------------------------|
(She likes em with a moustache..)
Then ‘It’s like a bad movie’ part again then chorus repeated 4 times.

e|---------------------------------------------------------------------------|
B|---------------------------------------------------------------------------|
G|---------------------------------------------------------------------------|
D|-4444—-2222--0000--2222--4444--55555--7777---------------------------------|
A|-4444--2222--0000--2222--4444--55555--7777---------------------------------|
D|-4444--2222--0000--2222--4444--55555--7777---------------------------------|
(There she goes again..)

e|---------------------------------------------------------------------------|
B|---------------------------------------------------------------------------|
G|---------------------------------------------------------------------------|
D|---------------------------------------------------------------------------|
A|---------------------------------------------------------------------------|
D|--0-0-0-0-0-0-0-0-4-4-4-4-5-5-5-5------------------------------------------|
^_________________________times 4____________________________________________^

(Now I’m watchin wrestling...) This bit doesn’t have to be played but it sounds good anyways.

Then chorus is played again but repeated 8 times and ends on:




e|---------------------------------------------------------------------------|
B|---------------------------------------------------------------------------|
G|---------------------------------------------------------------------------|
D|--0-0-0--------------------------------------------------------------------|
A|--0-0-0--------------------------------------------------------------------|
E|--0-0-0--------------------------------------------------------------------|

That’s it, if you have any questions or comments email em to me at carlsalji@hotmail.com. THX
Comments