Bowling For Soup - Girl All The Bad Guys Want Chords & Tabs

 

Girl All The Bad Guys Want Chords & Tabs

Bowling For Soup Chords & Tabs

Version: 8 Type: Tab 0 ratings
1 star 2 stars 3 stars 4 stars 5 stars
comments

Girl All The Bad Guys Want Tab

   
Artist: Bowling for Soup
Song: Girl all the bad guys want
Albulm: Drunk Enough to Dance/The New Guy soundtrack
Tabbed by:zeroisgreatman

Tune E string one step down from E to D
Tunning low to high[DADGBe]

Guitar 1: intro/(she's the girl all the bad guys want)
e|---------------------------------|
B|---------------------------------|
G|---------------------------------|
D|---------------------------------|
A|---5-4-0---5-4-0---5-4-0-2-------|
D|-0-------4-------5---------5-4-0-|

Guitar 2: intro/(she's the girl all the bad guys want)
e|---------------------------------|
B|---------------------------------|
G|---------------------------------|
D|-0-0-0-0-4-4-4-4-5-5-5-5-7-7-7-7-|
A|-0-0-0-0-4-4-4-4-5-5-5-5-7-7-7-7-|
D|-0-0-0-0-4-4-4-4-5-5-5-5-7-7-7-7-|

Guitar 1:verse 
e|---------------------|
B|---------------------|
G|---------------------|
D|-0-0-0-0-4-4-5-5-5-5-|
A|-0-0-0-0-4-4-5-5-5-5-|
D|-0-0-0-0-4-4-5-5-5-5-|

Guitar 2:fill(after the words"a little cooler then me")
e|------|
B|------|
G|-4-/7-|
D|-4-/7-|
A|-2-/5-|
D|------|

Guitar 1:verse part 2(and when she walks)
e|------------------------------------------------------|
B|------------------------------------------------------|
G|-4-4-4-4--2-2-2-2-------------------------------------|
D|-4-4-4-4--2-2-2-2--5-5-5-5--0-0-0-0--2-2-2-2--5-5-5-5-|
A|-2-2-2-2--0-0-0-0--5-5-5-5--0-0-0-0--2-2-2-2--5-5-5-5-|
D|-------------------5-5-5-5--0-0-0-0--2-2-2-2--5-5-5-5-|
[ Tab from: http://www.guitartabs.cc/tabs/b/bowling_for_soup/girl_all_the_bad_guys_want_tab_ver_8.html ]
Guitar 2:verse part 2(and when she walks)
e|----------------------------------------------------------|
B|----------------------------------------------------------|
G|-4-4-4-4--------------------7-7-7-7--9-9-9-9--12-12-12-12-|
D|-x-x-x-x--9-9-9-9--5-5-5-5--x-x-x-x--x-x-x-x--xx-xx-xx-xx-|
A|-2-2-2-2--x-x-x-x--x-x-x-x--5-5-5-5--7-7-7-7--10-10-10-10-|
D|----------9-9-9-9--5-5-5-5--------------------------------|

Both Guitars:pre chorus (Cause sh's watching wrestling)
e|--------------------|
B|--------------------|
G|--------------------| 
D|-0-0--2-2--4-4--5-5-|
A|-0-0--2-2--4-4--5-5-|
D|-0-0--2-2--4-4--5-5-|

Guitar 1: chorus(its like a bad movie)
e|------------------------------------------------------|
B|------------------------------------------------------|
G|------------------------------------------------------|
D|-2-2-2-2--4-4-4-4--5-5-5-5--4-4-4-4--5-5-5-5--7-7-7-7-|
A|-2-2-2-2--4-4-4-4--5-5-5-5--4-4-4-4--5-5-5-5--7-7-7-7-|
D|-2-2-2-2--4-4-4-4--5-5-5-5--4-4-4-4--5-5-5-5--7-7-7-7-|

Guitar 2:chorus(its like a bad movie)
e|------------------------------------------------------|
B|------------------------------------------------------|
G|------------------------------------------------------|
D|-2-2-2-2--4-4-4-4--5-5-5-5--4-4-4-4--5-5-5-5--7-7-7-7-|
A|-x-x-x-x--x-x-x-x--x-x-x-x--x-x-x-x--x-x-x-x--x-x-x-x-|
D|-2-2-2-2--4-4-4-4--5-5-5-5--4-4-4-4--5-5-5-5--7-7-7-7-|

Both guitars: (there she goes again)
e|---------------------------------------------------------------|
B|---------------------------------------------------------------|
G|---------------------------------------------------------------|
D|-4-4-4-4--2-2-2-2--0-0-0-0--2-2-2-2--4-4-4-4--5-5-5-5--7-7-7-7-|
A|-4-4-4-4--2-2-2-2--0-0-0-0--2-2-2-2--4-4-4-4--5-5-5-5--7-7-7-7-|
D|-4-4-4-4--2-2-2-2--0-0-0-0--2-2-2-2--4-4-4-4--5-5-5-5--7-7-7-7-|
|----------------------pm----------------------------------------|

piano prechorus(now im watching wrestling)[play each of the notes in the chord foward and backwards]

Gm                             
now im watching wrestling/but i cant grow a mustache 
Em
trying to be a tough guy/ and i aint got no season pass
F#m
listening to rap metal/ all i gots a moped, moped, moped.
Gm
turn tables in my eyes/
Comments