Bowling For Soup - Girl All The Bad Guys Want Chords & Tabs

 

Girl All The Bad Guys Want Chords & Tabs

Bowling For Soup Chords & Tabs

Version: 6 Type: Tab 0 ratings
1 star 2 stars 3 stars 4 stars 5 stars
comments

Girl All The Bad Guys Want Tab

   
Bowling For Soup - The Girl all the Bad Guys Want
Tabbed by Iain Reilly

I think it's all pretty much right, couldn't be bothered to tab second guitar

Lead Riff 1 x3 (2nd and 3rd over Riff 1)
E|----------------------------------|
B|----------------------------------|
G|----------------------------------|
D|----------------------------------|
A|---5-4-0---5-4-0---5-4-0--2-0-2-0-|
D|-0-------4-------5----------------|

Riff 1 x2
E|-----------------------------------|
B|-----------------------------------|
G|-----------------------------------|
D|-\\0-0-0-0-4-4-4-4-5-5-5-5-7-7-7-7-|
A|-\\0-0-0-0-4-4-4-4-5-5-5-5-7-7-7-7-|
D|-\\0-0-0-0-4-4-4-4-5-5-5-5-7-7-7-7-|

Riff 2 x1 ("It's eight o'clock...") 
E|---------------------------------|
B|---------------------------------|
G|---------------------------------|
D|-0-0-0-0-0-0-0-0-5-5-5-5-7-7-7-7-|
A|-0-0-0-0-0-0-0-0-5-5-5-5-7-7-7-7-|
D|-0-0-0-0-0-0-0-0-5-5-5-5-7-7-7-7-|
PM ...............................  

Riff 2b x1 ("To finally talk to a girl...")
E|-----------------------------------|
B|-----------------------------------| 
G|-----------------------------------| 
D|-0-0-0-0-0-0-0-0-5-5-5-5-7-7-7-7-9-| 
A|-0-0-0-0-0-0-0-0-5-5-5-5-7-7-7-7-9-| 
D|-0-0-0-0-0-0-0-0-5-5-5-5-7-7-7-7-9-| 
PM .............................

Riff 2 x2 ("Her name is...")


Riff 3 x1 ("And when she walks...")
E|-------------------------------------------------|
B|-------------------------------------------------|
G|-------------------------------------------------|
D|-9-9-9-9-7-7-7-7-5-5-5-5-0-0-0-0-2-2-2-4-5-5-5-5-|
A|-9-9-9-9-7-7-7-7-5-5-5-5-0-0-0-0-2-2-2-4-5-5-5-5-|
D|-9-9-9-9-7-7-7-7-5-5-5-5-0-0-0-0-2-2-2-4-5-5-5-5-|

Riff 4 x1 ("She's watching wrestling...")
E|--------------------|
B|--------------------|
G|--------------------|
D|-0-0--2-2--4-4--5-5-|
A|-0-0--2-2--4-4--5-5-|
D|-0-0--2-2--4-4--5-5-|
[ Tab from: http://www.guitartabs.cc/tabs/b/bowling_for_soup/girl_all_the_bad_guys_want_tab_ver_6.html ]
Riff 5 x1 ("It's like a bad movie...")
E|-------------------------------------------------------------------------------------------------|
B|-------------------------------------------------------------------------------------------------|
G|-------------------------------------------------------------------------------------------------|
D|-2-2-2-2-2-2-2-2-4-4-4-4-4-4-4-4-5-5-5-5-5-5-5-5-4-4-4-4-4-4-4-4-5-5-5-5-5-5-5-5-7-7-7-7-7-7-7-7-|
A|-2-2-2-2-2-2-2-2-4-4-4-4-4-4-4-4-5-5-5-5-5-5-5-5-4-4-4-4-4-4-4-4-5-5-5-5-5-5-5-5-7-7-7-7-7-7-7-7-|
D|-2-2-2-2-2-2-2-2-4-4-4-4-4-4-4-4-5-5-5-5-5-5-5-5-4-4-4-4-4-4-4-4-5-5-5-5-5-5-5-5-7-7-7-7-7-7-7-7-|
PM ....................................................................... (Fade out of palm mute)

Lead Riff 1 x2 (Over Riff 1)
Riff 1 x2 ("She's the girl all the bad guys want")
Riff 2 x1 ("She likes the godsmack...")
Riff 2b x1 ("Her cd changes full of...")
Riff 2 x2 ("She said she'd...")
Riff 3 x1 ("And when she walks...")
Riff 4 x1 ("She's watching wrestling...")

Riff 6 x1 ("She likes them with a...")
E|-----------------------------------------------------------------|
B|-----------------------------------------------------------------|
G|-----------------------------------------------------------------|
D|-2-2-2-2-2-2-2-2-4-4-4-4-4-4-4-4-5-5-5-5-5-5-5-5-7-7-7-7-7-7-7-7-|
A|-2-2-2-2-2-2-2-2-4-4-4-4-4-4-4-4-5-5-5-5-5-5-5-5-7-7-7-7-7-7-7-7-|
D|-2-2-2-2-2-2-2-2-4-4-4-4-4-4-4-4-5-5-5-5-5-5-5-5-7-7-7-7-7-7-7-7-|
PM ...   .....   .....   .....   .....   .....   ......  .....   .

Riff 5 x1 ("It's like a bad movie...")
Riff 1 x4 ("She's the girl all the bad guys want...")

Riff 7 x1 ("There she goes again...")
E|------------------------------------------------------------------------|
B|------------------------------------------------------------------------|
G|------------------------------------------------------------------------|
D|-9-9-9-9-7-7-7-7-5-5-5-5-5-5-5-5-9-9-9-9-7-7-7-7-5--5--5--5--7--7--7--7-|
A|-9-9-9-9-7-7-7-7-5-5-5-5-5-5-5-5-9-9-9-9-7-7-7-7-5--5--5--5--7--7--7--7-|
D|-9-9-9-9-7-7-7-7-5-5-5-5-5-5-5-5-9-9-9-9-7-7-7-7-5--5--5--5--7--7--7--7-|

Piano bit ("Now i'm watching wrestling...")
Riff 5 x1 ("It's like a bad movie...")
Riff 1 x8 ("She's the girl all the bad guys want...")

Riff 8 x1
E|-------|
B|-------|
G|-------|
D|-0-0-0-|
A|-0-0-0-|
D|-0-0-0-|

Any mistakes email me at bitter_suites@hotmail.com
Comments