Bowling For Soup - Girl All The Bad Guys Want Chords & Tabs

 

Girl All The Bad Guys Want Chords & Tabs

Bowling For Soup Chords & Tabs

Version: 5 Type: Tab 0 ratings
1 star 2 stars 3 stars 4 stars 5 stars
comments

Girl All The Bad Guys Want Tab

   
##################################################################################
# This file is the author's own work and represents their interpretation of the  #
# song. You may only use this file for private study, scholarship, or research.  #
##################################################################################

Artist:Bowling for Soup
Song:Girl all the bad guys want
Tabbed by: Ryan H

IF YOU LIKE IT EMAIL ME, IF YOU FIND A MISTAKE, EMAIL ME, or JUST EMAIL ME

FYREBALL07RH@AOL.COM

ENJOY

Drop D

Intro
E---------------------------------
B---------------------------------
G---------------------------------
D---0-------0------0--------------
A-----4-0-----4-0---4-0---2-0-----
D-0-------4-------5-----------4-2-

Verse
E---------------------------------
B---------------------------------
G---------------------------------
D-0-0-0----0-0-0----5-5-5----7-7-7
A-0-0-0----0-0-0----5-5-5----7-7-7
D-0-0-0----0-0-0----5-5-5----7-7-7 
  X X X    X X X    X X X    X X X

PreChorus
E-------------------------------------------
B-------------------------------------------
G-4-4-4-4-4-2-2-2-2-2-----------------------
D-4-4-4-4-4-2-2-2-2-2--5-5-5-5-5--2-2-2-2-2-
A-2-2-2-2-2-0-0-0-0-0--5-5-5-5-5--2-2-2-2-2-
D----------------------5-5-5-5-5--2-2-2-2-2-

E---------------------
B---------------------
G---------------------
D-5-5-5-5-5--2-2-2-2-2
A-5-5-5-5-5--2-2-2-2-2
D-5-5-5-5-5--2-2-2-2-2

Chorus
[ Tab from: http://www.guitartabs.cc/tabs/b/bowling_for_soup/girl_all_the_bad_guys_want_tab_ver_5.html ]
she likes watchin wrestlin...
E-----------------------------------------------------
B-----------------------------------------------------
G-----------------------------------------------------
D---------------------0-0------2-2------4-4--------5-5
A---------------------0-0------2-2------4-4--------5-5
D---------------------0-0------2-2------4-4--------5-5

Its like a bad movie.....
E--------------------------------------------------------------
B--------------------------------------------------------------
G--------------------------------------------------------------
D--2-2-2--2--2-2-2--2--4-4-4--4--4-4-4--4--5-5-5--5--5-5-5--5--
A--2-2-2--2--2-2-2--2--4-4-4--4--4-4-4--4--5-5-5--5--5-5-5--5--
D--2-2-2--2--2-2-2--2--4-4-4--4--4-4-4--4--5-5-5--5--5-5-5--5--
   X X X     X X X     X X X     X X X     X X X     X X X
E----------------------------------------------------------
B---------------------------------------------------------
G-----------------------------------------2-2-2-2-2-2-2-2-2
D-4-4-4--4--4-4-4--4--2-2-2--2--2-2-2--2--2-2-2-2-2-2-2-2-2
A-4-4-4--4--4-4-4--4--2-2-2--2--2-2-2--2--0-0-0-0-0-0-0-0-0
D-4-4-4--4--4-4-4--4--2-2-2--2--2-2-2--2-------------------
  X X X     X X X     x x x     x x x 

Bridge
E----------------------------------  
B---------------------------------- 2x then
G-4-4-4-4--2-2-2-2-----------------
D-4-4-4-4--2-2-2-2-5-5-5-5-5-5-5-5-
A-2-2-2-2--0-0-0-0-5-5-5-5-5-5-5-5-
D------------------5-5-5-5-5-5-5-5-

sedated...                naked.....
D-5-----------2------------7
A-5-(let ring)2-(let ring)-7
D-5-----------2------------7

Quiet part (semi-clean)
E------------------------------------------------------------
B------------------------------------------------------------
G----7-----7-----9-----9------11------11-------12------12----
D---7--7--7--7--9--9--9--9--11--11--11---11--12--12--12---12-
A-5-----5------7----7------9------9--------10------10--------
D------------------------------------------------------------

song order
intro 3x
verse
pre-chorus
chorus
intro 2x
verse
pre-chorus
chorus
intro 5x
bridge
quiet part
chorus ("its like a bad movie" part)
intro until end
Comments