Bowling For Soup - Girl All The Bad Guys Want Chords & Tabs

 

Girl All The Bad Guys Want Chords & Tabs

Bowling For Soup Chords & Tabs

Version: 4 Type: Tab 3 ratings
1 star 2 stars 3 stars 4 stars 5 stars
comments

Girl All The Bad Guys Want Tab

   
BOWLING FOR SOUP - GIRL ALL THE BAD GUYS WANT


DROPPED D TUNING - D A D G B E



INTRO/MAIN RIFF/CHORUS:

      D5            F#5              G5              A5

E |-------------------------------|------------------------------------|
B |-------------------------------|------------------------------------|
G |-------------------------------|------------------------------------|
D |-------------------------------|------------------------------------|
A |-------5--4--0-------5--4--0---|------5--4--0-----2--0--------------|
D |---0-------------4-------------|--5----------------------5--4-------|

MAIN RIFF/CHORUS: (Version 2) [This is harder]

     D5             F#5              G5              A5

E |-------------------------------|------------------------------------|
B |-------------------------------|------------------------------------|
G |-------7--6-----------7--6-----|-------7--6-------4-----------------|
D |---0---------7----4---------7--|---5---------7-------7--5--4--------|
A |-------------------------------|------------------------------------|
D |-------------------------------|------------------------------------|

VERSE:

      D5                              G5          A5

E |-------------------------------|------------------------------------|
B |-------------------------------|------------------------------------|
G |-------------------------------|------------------------------------|
D |---0--0--0--0--0--0--0--0--0---|---5--5--5--5--7--7--7--7-----------|
A |---0--0--0--0--0--0--0--0--0---|---5--5--5--5--7--7--7--7-----------|
D |---0--0--0--0--0--0--0--0--0---|---5--5--5--5--7--7--7--7-----------|

PRECHORUS:

      B5                     A5                     G5

E |----------------------|----------------------|----------------------|
B |----------------------|----------------------|----------------------|
G |----------------------|----------------------|----------------------|
D |---9----9----9----9---|---7----7----7----7---|---5----5----5----5---|
A |---9----9----9----9---|---7----7----7----7---|---5----5----5----5---|
D |---9----9----9----9---|---7----7----7----7---|---5----5----5----5---|

      D5                     E5                     G5

E |----------------------|----------------------|----------------------|
B |----------------------|----------------------|----------------------|
G |----------------------|----------------------|----------------------|
D |---0----0----0----0---|---2----2----2----2---|---5----5----5----5---|
A |---0----0----0----0---|---2----2----2----2---|---5----5----5----5---|
D |---0----0----0----0---|---2----2----2----2---|---5----5----5----5---|

    * D5                E5                F#5              G5

E |----------------|-----------------|----------------|----------------|
B |----------------|-----------------|----------------|----------------|
G |----------------|-----------------|----------------|----------------|
D |---0--0---------|---2--2----------|---4--4---------|---5--5---------|
A |---0--0---------|---2--2----------|---4--4---------|---5--5---------|
D |---0--0---------|---2--2----------|---4--4---------|---5--5---------|

*(Play this twice second time)

      E5                    F#5                   G5
[ Tab from: http://www.guitartabs.cc/tabs/b/bowling_for_soup/girl_all_the_bad_guys_want_tab_ver_4.html ]
E |---------------------|---------------------|------------------------|
B |---------------------|---------------------|------------------------|
G |---------------------|---------------------|------------------------|
D |---2-2-2-2-2-2-2-2---|---4-4-4-4-4-4-4-4---|---5-5-5-5-5-5-5-5------|
A |---2-2-2-2-2-2-2-2---|---4-4-4-4-4-4-4-4---|---5-5-5-5-5-5-5-5------|
D |---2-2-2-2-2-2-2-2---|---4-4-4-4-4-4-4-4---|---5-5-5-5-5-5-5-5------|

      F#5                   G5                    A5

E |---------------------|---------------------|------------------------|
B |---------------------|---------------------|------------------------|
G |---------------------|---------------------|------------------------|
D |---4-4-4-4-4-4-4-4---|---5-5-5-5-5-5-5-5---|---7-7-7-7-7-7-7-7------|
A |---4-4-4-4-4-4-4-4---|---5-5-5-5-5-5-5-5---|---7-7-7-7-7-7-7-7------|
D |---4-4-4-4-4-4-4-4---|---5-5-5-5-5-5-5-5---|---7-7-7-7-7-7-7-7------|

BACK TO CHORUS:



MIDDLE:

     B5             A5             G5

E |--------------|--------------|--------------|-----------------------|
B |--------------|--------------|--------------|-----------------------|
G |--------------|--------------|--------------|-----------------------|
D |--9--9--9--9--|--7--7--7--7--|--5--5--5--5--|--5--5--5--5-----------|
A |--9--9--9--9--|--7--7--7--7--|--5--5--5--5--|--5--5--5--5-----------|
D |--9--9--9--9--|--7--7--7--7--|--5--5--5--5--|--5--5--5--5-----------|

     B5             A5             G5

E |--------------|--------------|--------------|-----------------------|
B |--------------|--------------|--------------|-----------------------|
G |--------------|--------------|--------------|-----------------------|
D |--9--9--9--9--|--7--7--7--7--|--5-----5-----|--12--11--9--7---------|
A |--9--9--9--9--|--7--7--7--7--|--5—----5-----|--x---x---x--x---------|
D |--9--9--9--9--|--7--7--7--7--|--5-----5-----|--10--9---7--5---------|

     A5

E |--------------|-----------------------------------------------------|
B |--------------|-----------------------------------------------------|
G |--------------|-----------------------------------------------------|
D |--7-----------|---------7---7---------------------------------------|
A |--7-----------|---------7---7---------------------------------------|
D |--7-----------|---------7---7---------------------------------------|

BACK TO PRECHORUS:



LAST VERSE: (PIANO)

       D5                               E5

E |--------------------------------|----------------------------------|
B |-------3--------3---------3-----|-------3--------3--------3--------|
G |----------2--------2------------|----------0--------0--------------|
D |----0--------0--------0---------|----2--------2--------2-----------|
A |--------------------------------|----------------------------------|
D |--------------------------------|----------------------------------|

       F#5                              G5

E |--------------------------------|----------------------------------|
B |-------3--------3---------3-----|-------3--------3--------3--------|
G |----------0--------0------------|----------0--------0--------------|
D |----4--------4--------4---------|----5--------5--------5-----------|
A |--------------------------------|----------------------------------|
D |--------------------------------|----------------------------------|

BACK TO PRECHORUS:


All correct, I believe, but if not, it sure sounds right!
Comments