Bowling For Soup - Girl All The Bad Guys Want Chords & Tabs

 

Girl All The Bad Guys Want Chords & Tabs

Bowling For Soup Chords & Tabs

Version: 3 Type: Tab 0 ratings
1 star 2 stars 3 stars 4 stars 5 stars
comments

Girl All The Bad Guys Want Tab

THIS IS MY FIRST TAB SO I HOPE IT TURNS OUT OK, EMAIL ME IF U WANT ON you_know_your_rite@hotmail.com
hey, this song is 100% correct, i tabbed it out and then looked at the official music, its pretty easy 2 plat too, enjoy :)

Intro/Chorus

E |----------------------------------|-----------------------------|
B |----------------------------------|-----------------------------|
G |----------------------------------|-----------------------------|
D |----------------------------------|-----------------------------|
A |-----5---4---0-------5---4---0----|----5---4---0---2---0--------|
E |-0---------------4----------------|5-----------------------5---4|

Play this over a couple of times before Jaret starts singing, not sure how many times to be  exact, listen 2 the cd

Verse (Palm Muted)

E|---------------------------------|-------------------------------|
B|---------------------------------|-------------------------------|
G|---------------------------------|-------------------------------|
D|-0---0---0---0---0---0---0---0---|-5---5---5---5---7---7---7---7-|
A|-0---0---0---0---0---0---0---0---|-7---7---7---7---7---7---7---7-|
E|-0---0---0---0---0---0---0---0---|-7---7---7---7---7---7---7---7-|

Bridge Riff 1
[ Tab from: http://www.guitartabs.cc/tabs/b/bowling_for_soup/girl_all_the_bad_guys_want_tab_ver_3.html ]
E|---------------------------|-------------------------------|-------------------------|
B|---------------------------|-------------------------------|-------------------------|
G|---------------------------|-------------------------------|-------------------------|
D|-9---9---9---9---9---9---7-|-7---7---7---7---7---7---7---7-|-5---5---5-----5---5---5-|
A|-9---9---9---9---9---9---7-|-7---7---7---7---7---7---7---7-|-5---5---5-----5---5---5-|
E|-9---9---9---9---9---9---7-|-7---7---7---7---7---7---7---7-|-5---5---5-----5---5---5-|

E|---------------------|-----------------------|---------------------------|
B|-----3-----------3---|-----------------------|---------------------------|
G|-----2-----------2---|-----------------------|---------------------------|
D|-----0-----------0---|-2---2---2---2---2---0-|-5---5---5---5---5---5---5-|
A|-----0---0---0---0---|-2---2---2---2---2---0-|-5---5---5---5---5---5---5-|
E|-0---0---0---0---0---|-2---2---2---2---2---4-|-5---5---5---5---5---5---5-|

Bridge Riff 2

E|---------|---------|---------|-------------|
B|---------|---------|---------|-------------|
G|-7---7---|---------|---------|-------------|
D|-7---7---|-2---2---|-4---4---|-5---5-------|
A|-5---5---|-2---2---|-4---4---|-5---5-------|
E|-0---0---|-2---2---|-4---4---|-5---5---14\-|

E|-------------------------------|-------------------------------|-------------------------------|
B|-------------------------------|-------------------------------|-------------------------------|
G|-------------------------------|-------------------------------|---------------------7---------|
D|-2---2---2---2---2---2---2---2-|---------7---7---7---7---7---7-|---------------------7---------|
A|-2---2---2---2---2---2---2---2-|-5---5---5---5---5---5---5---5-|-5---5---5---5---5---5---5---5-|
E|-2---2---2---2---2---2---2---2-|-4---4---4---4---4---4---4---4-|-5---5---5---5---5---5---5---5-|

Well.... thats most of the song the rest is almost the same, hope u cn play it :)


Comments