Bowling For Soup - Girl All The Bad Guys Want Chords & Tabs

 

Girl All The Bad Guys Want Chords & Tabs

Bowling For Soup Chords & Tabs

Version: 2 Type: Tab 1 rating
1 star 2 stars 3 stars 4 stars 5 stars
comments

Girl All The Bad Guys Want Tab

Drop D tuning
pm = palm mute
x  = lh muting
/  = slide up
\  = slide down

Uhh. Sorry if it looks a bit complicated but i think it's pretty accurate.
Basically Guitar 2 is the one that plays all the main chunks, and Guitar 1 
the intro and the fills.

Enjoy this is pretty accurate and it took a long time getting it done but its easy to play.

INTRO 
(Gtr 1. Distortion) x3                       /       last time only      \
e|------------------------------------------|-----------------------------|
B|------------------------------------------|-----------------------------|
G|------------------------------------------|-----------------------------|
D|------------------------------------------|-----------------------------|
A|-----5-4-0-----5-4-0-----5-4-0---2-0------|-----------------------------|
D|---0---------4---------5-------------4-2--|-0---------------------------|
		       							  |
(Gtr 2. Distortion) enter after riff's been played once			  |
e|------------------------------------------------------------------------|
B|------------------------------------------------------------------------|
G|------------------------------------------------------------------------|
D|x\-0-0-0-0---4-4-4-4---5-5-5-5---7-7-7-7--------------------------------|
A|x\-0-0-0-0---4-4-4-4---5-5-5-5---7-7-7-7--------------------------------|
D|x\-0-0-0-0---4-4-4-4---5-5-5-5---7-7-7-7--------------------------------|



VERSE
(Gtr 2. Distortion)
e|---------------------------------------------------------------------------|
B|---------------------------------------------------------------------------|
G|---------------------------------------------------------------------------|
D|--0-0-0-0-0-0-0-0--5-5-5-5-7-7-7-7----0-0-0-0-0-0-0-0--5-5-5-5-7-7-5-7-----|
A|--0-0-0-0-0-0-0-0--5-5-5-5-7-7-7-7----0-0-0-0-0-0-0-0--5-5-5-5-7-7-5-7-----|
D|--0-0-0-0-0-0-0-0--5-5-5-5-7-7-7-7----0-0-0-0-0-0-0-0--5-5-5-5-7-7-5-7-----|
    \--------------pm--------------/    \------------pm------------/


e|---------------------------------------------------------------------------|
B|---------------------------------------------------------------------------|
G|---------------------------------------------------------------------------|
D|--0-0-0-0-0-0-0-0--5-5-5-5-7-7-7-7----0-0-0-0-0-0-0-0--5-5-5-5-7-7-7-7-----|
A|--0-0-0-0-0-0-0-0--5-5-5-5-7-7-7-7----0-0-0-0-0-0-0-0--5-5-5-5-7-7-7-7-----|
D|--0-0-0-0-0-0-0-0--5-5-5-5-7-7-7-7----0-0-0-0-0-0-0-0--5-5-5-5-7-7-7-7-----|
    \--------------pm--------------/    \--------------pm--------------/


BRIDGE
(Gtr 2. Distortion)
e|----------------------------------------------------------------------|
B|----------------------------------------------------------------------|
G|-4---4---4-4-4---2---2---2-2-2----------------------------------------|
D|-4---4---4-4-4---2---2---2-2-2---5---5---5-5-5---0---0---0-0-0--------|
A|-2---2---2-2-2---0---0---0-0-0---5---5---5-5-5---0---0---0-0-0--------|
D|---------------------------------5---5---5-5-5---0---0---0-0-0--------|



e|----------------------------------------------------------------------|
B|----------------------------------------------------------------------|
G|----------------------------------------------------------------------|
D|-2---2---2-2-2---5---5---5-5-5----------------------------------------|
A|-2---2---2-2-2---5---5---5-5-5----------------------------------------|
D|-2---2---2-2-2---5---5---5-5-5----------------------------------------|




PRE-CHORUS
(Gtr 2. Distortion)
e|----------------------------------------------------------------------|
B|-3-3------5-5------7-7------8-8---------------------------------------|
G|-2-2------4-4------6-6------7-7---------------------------------------|
D|-0-0------2-2------4-4------5-5---------------------------------------|
A|-0-0------2-2------4-4------5-5---------------------------------------|
D|-0-0------2-2------4-4------5-5-------x\------------------------------|




e|----------------------------------------------------------------------|
B|---------------------------------------8-------8--------7-------7-----|
G|---------------------------------------7-------7--------6-------6-----|
D|-2-2-2-2-2-2-2-2--4-4-4-4-4-4-4-4--5-5-5-5-5-5-5-5--4-4-4-4-4-4-4-4---|
A|-2-2-2-2-2-2-2-2--4-4-4-4-4-4-4-4--5-5-5-5-5-5-5-5--4-4-4-4-4-4-4-4---|
D|-2-2-2-2-2-2-2-2--4-4-4-4-4-4-4-4--5-5-5-5-5-5-5-5--4-4-4-4-4-4-4-4---|
   \-------------------------------pm-------------------------------/



e|----------------------------------------------------------------------|
B|----------------------------------------------------------------------|
G|----------------------------------------------------------------------|
D|-5-5-5-5-5-5-5-5--7-7-7-7-7-7-7-7-------------------------------------|
A|-5-5-5-5-5-5-5-5--7-7-7-7-7-7-7-7-------------------------------------|
D|-5-5-5-5-5-5-5-5--7-7-7-7-7-7-7-7-------------------------------------|
   \-----gradually release pm


CHORUS
Is the same as the intro

VERSE 2

BRIDGE
(Gtr 2. Distortion)
e|----------------------------------------------------------------------|
B|----------------------------------------------------------------------|
G|-4---4---4-4-4---2---2---2-2-2----------------------------------------|
D|-4---4---4-4-4---2---2---2-2-2---5---5---5-5-5---0---0---0-0-0--------|
A|-2---2---2-2-2---0---0---0-0-0---5---5---5-5-5---0---0---0-0-0--------|
D|---------------------------------5---5---5-5-5---0---0---0-0-0--------|
									|
(Gtr 1. Slight distortion)              				|
e|----------------------------------------------------------------------|
B|----------------------------------------------------------------------|
G|-------------------------------------------------7-7/9-9/11-11--------|
D|-------------------------------------------------x-x/x-x/x--x---------|
A|-------------------------------------------------5-5/7-7/9--9---------|
D|----------------------------------------------------------------------|


[ Tab from: http://www.guitartabs.cc/tabs/b/bowling_for_soup/girl_all_the_bad_guys_want_tab_ver_2.html ]
e|----------------------------------------------------------------------|
B|----------------------------------------------------------------------|
G|----------------------------------------------------------------------|
D|-2---2---2-2-2---5---5---5-5-5----------------------------------------|
A|-2---2---2-2-2---5---5---5-5-5----------------------------------------|
D|-2---2---2-2-2---5---5---5-5-5----------------------------------------|




PRE-CHORUS 2
(Gtr 2. Distortion)
e|----------------------------------------------------------------------|
B|-3-3------5-5------7-7------8-8---------------------------------------|
G|-2-2------4-4------6-6------7-7---------------------------------------|
D|-0-0------2-2------4-4------5-5---------------------------------------|
A|-0-0------2-2------4-4------5-5---------------------------------------|
D|-0-0------2-2------4-4------5-5-------x\------------------------------|


(Gtr 1. Distortion)
e|----------------------------------------------------------------------|
B|-3---3-------3--------5-------5--------7-------7--------8-------8-----|
G|-2---2-------2--------4-------4--------6-------6--------7-------7-----|
D|-0---0-------0--------2-------2--------4-------4--------5-------5-----|
A|-0---0-------0--------2-------2--------4-------4--------5-------5-----|
D|-0---0-------0--------2-------2--------4-------4--------5-------5-----|
									|
(Gtr 2. Distortion)							|
e|----------------------------------------------------------------------|
B|----------------------------------------------------------------------|
G|----------------------------------------------------------------------|
D|-0-0-0-0-0-0-0-0--2-2-2-2-2-2-2-2--4-4-4-4-4-4-4-4--5-5-5-5-5-5-5-5---|
A|-0-0-0-0-0-0-0-0--2-2-2-2-2-2-2-2--4-4-4-4-4-4-4-4--5-5-5-5-5-5-5-5---|
D|-0-0-0-0-0-0-0-0--2-2-2-2-2-2-2-2--4-4-4-4-4-4-4-4--5-5-5-5-5-5-5-5---|
   \-------------------------------pm-------------------------------/

(Gtr 2. Distortion)
e|----------------------------------------------------------------------|
B|---------------------------------------8-------8--------7-------7-----|
G|---------------------------------------7-------7--------6-------6-----|
D|-2-2-2-2-2-2-2-2--4-4-4-4-4-4-4-4--5-5-5-5-5-5-5-5--4-4-4-4-4-4-4-4---|
A|-2-2-2-2-2-2-2-2--4-4-4-4-4-4-4-4--5-5-5-5-5-5-5-5--4-4-4-4-4-4-4-4---|
D|-2-2-2-2-2-2-2-2--4-4-4-4-4-4-4-4--5-5-5-5-5-5-5-5--4-4-4-4-4-4-4-4---|
   \-------------------------------pm-------------------------------/


e|----------------------------------------------------------------------|
B|----------------------------------------------------------------------|
G|----------------------------------------------------------------------|
D|-5-5-5-5-5-5-5-5--7-7-7-7-7-7-7-7-------------------------------------|
A|-5-5-5-5-5-5-5-5--7-7-7-7-7-7-7-7-------------------------------------|
D|-5-5-5-5-5-5-5-5--7-7-7-7-7-7-7-7-------------------------------------|
   \-----gradually release pm



CHORUS


INTERLUDE 
(Gtr 2. Distortion)
e|------------------------------------------------------------------------------|
B|------------------------------------------------------------------------------|
G|-4---4---4---4-4-----2---2---2---2-2------------------------------------------|
D|-4---4---4---4-4-----2---2---2---2-2-----5---5---5---5-5-----5---5---5---5-5--|
A|-2---2---2---2-2-----0---0---0---0-0-----5---5---5---5-5-----5---5---5---5-5--|
D|-----------------------------------------5---5---5---5-5-----5---5---5---5-5--|
										|
(Gtr 1. Fill 1, quieter with distortion)					|
G|---------------------------------------------------------------------2-2-0----|
D|---------------------------------------------------------------------------4--|

(Gtr 2. Distortion)
e|--------------------------------------------------------------------------------------|
B|--------------------------------------------------------------------------------------|
G|-4---4---4---4-4-----2---2---2---2-2--------------------------------------------------|
D|-4---4---4---4-4-----2---2---2---2-2-----5-----------7----------------7-7-7-----------|
A|-2---2---2---2-2-----0---0---0---0-0-----5-----------7----------------7-7-7-----------|
D|-----------------------------------------5-----------7----------------7-7-7-----------|
										        |
(Gtr 1. Fill 2, with slight distortion)						        | 
e|------------------------------------------------------------------0-------------------|
B|--------------------------------------------------------------2-----------------------|
G|--------------------------------------------9-7-6-4--2----2---------------------------|
D|--------------------------------------------x-x-x-x--2--2---2---2---------------------|
A|--------------------------------------------7-5-4-2--0--------------------------------|
D|--------------------------------------------------------------------------------------|

(Gtr 1. Very quiet with slight distortion) X2
e|----------------------------------------------------------------------|
B|----------------------------------------------------------------------|
G|-7---9---11--12-------------------------------------------------------|
D|-x---x---x---x--------------------------------------------------------|
A|-5---7---9---10-------------------------------------------------------|
D|----------------------------------------------------------------------|

(Gtr 2. Fill 3, Distortion, 2nd time only)
A|----------------------------------------------------------------------|
D|--------------------------------------x\------------------------------|


PRE-CHORUS 2

CHORUS

ENDING
e|----------------------------------------------------------------------|
B|-3-3-3----------------------------------------------------------------|
G|-2-2-2----------------------------------------------------------------|
D|-0-0-0----------------------------------------------------------------|
A|-0-0-0----------------------------------------------------------------|
D|-0-0-0----------------------------------------------------------------|


Comments