Bowling For Soup - Girl All The Bad Guys Want Intro Chords & Tabs

 

Girl All The Bad Guys Want Intro Chords & Tabs

Bowling For Soup Chords & Tabs

Version: 1 Type: Tab 0 ratings
1 star 2 stars 3 stars 4 stars 5 stars
comments

Girl All The Bad Guys Want Intro Tab

   
##################################################################################
# This file is the author's own work and represents their interpretation of the  #
# song. You may only use this file for private study, scholarship, or research.  #
##################################################################################
[ Tab from: http://www.guitartabs.cc/tabs/b/bowling_for_soup/girl_all_the_bad_guys_want_intro_tab.html ]
Dropped D tuning 
D E F# G A1 A2 B 
e|--------------------------------------- 
b|--------------------------------------- 
g|----------------------------2----4----- 
d|---0----2----4----5----7----2----4----- 
a|---0----2----4----5----7----0----2----- 
d|---0----2----4----5----7--------------- 

Guitar Intro - 3x 
e|--------------------------------------- 
b|--------------------------------------- 
g|--------------------------------------- 
d|--------------------------------------- 
a|---5-4-0---5-4-0---5-4-0-2-0----------- 
d|-0-------4-------5-----------5-4-0----- 


******************************************

Bowling for soup

Girl all the bad guys want



Chorus (she’s watching wrestling)
g---------------------------------------
d---------------------------------------
a---------------------------------------
e-0-0----2-2----4-4----5-5--------------
Comments