Bowling For Soup - Girl All The Bad Guys Want Chords & Tabs

 

Girl All The Bad Guys Want Chords & Tabs

Bowling For Soup Chords & Tabs

Version: 2 Type: Bass Tab 0 ratings
1 star 2 stars 3 stars 4 stars 5 stars
comments

Girl All The Bad Guys Want Bass Tab

   
-------------------------------------------------------------------------------
			     GIRL ALL THE BAD GUYS WANT - BOWLING FOR SOUP
-------------------------------------------------------------------------------

Tabbed By : Zero is great man
I've seen the other bass tab, while that one was close, this one is 100%
correct, so enjoy!. 

Tuning: Down tunned, E to D, low to high DADG
| /  slide up
| \  slide down
| h  hammer-on
| p  pull-off
| ~  vibrato
| +  harmonic
| x  Mute note

Fig.1 Intro/(Girl all the bad guys want)
G|------------------------------------|
D|------------------------------------|
A|------------------------------------|
D|-0-0-0-0--4-4-4-4--5-5-5-5--7-7-7-7-|

Fig.2 Verse
G|-----------------------------------|
D|-----------------------------------|
A|-----------------------------------|
D|-0-0-0-0-0-0-0-0--5-5-5-5--7-7-7-7-|

Fig.3 Verse part. 2 (And when she walks)
G|------------------------------------------------------|
D|------------------------------------------------------|
A|-2-2-2-2--0-0-0-0-------------------------------------|
D|-------------------0-0-0-0--5-5-5-5--2-2-2-2--5-5-5-5-|

Fig.4 Pre-Chorus (Cause she's watching wrestling)
G|--------------------|
D|--------------------|
A|--------------------|
D|-0-0--2-2--4-4--5-5-|
[ Tab from: http://www.guitartabs.cc/tabs/b/bowling_for_soup/girl_all_the_bad_guys_want_btab_ver_2.html ]
Fig.5 Slide(Slide after you hear turntables in her eyes.)
G|--------------------|   and
D|-10--------------\0-|(After you hear moped, moped, moped)
A|--------------------|
D|--------------------|

Fig.6 Chorus(It's like a bad movie)
G|------------------------------------------------------|
D|------------------------------------------------------|
A|------------------------------------------------------|
D|-2-2-2-2--4-4-4-4--5-5-5-5--4-4-4-4--5-5-5-5--7-7-7-7-|

Fig.7 Pre-chorus w/rhythem (she likes 'em with a mustache)
G|------------------------------------|
D|------------------------------------|
A|------------------------------------|
E|-0-0-0-0--2-2-2-2--4-4-4-4--5-5-5-5-|

Fig.8 Bridge(There she goes again) 
G|---------------------------------------------------------------------------|
D|---------------------------------------------------------------------------|
A|-2-2-2-2--0-0-0-0-------------------2-2-2-2--0-0-0-0-----------------------|
D|-------------------5-5-5-5-5-5-5-5--------------------5-5-5-5-5-5--7-7-7-7-|

Fig. 9 Piano Pre-chorus(Now I'm watching wrestling): play 2nd time around
G|---------|
D|---------|
A|---------|
D|-0-2-4-5-|

Fig. 10 Outro
G|-------|
D|-------|
A|-------|
D|-0-0-0-|

===============================================================================
Comments