Bowling For Soup - Girl All The Bad Guys Want Chords & Tabs

 

Girl All The Bad Guys Want Chords & Tabs

Bowling For Soup Chords & Tabs

Version: 1 Type: Bass Tab 0 ratings
1 star 2 stars 3 stars 4 stars 5 stars
comments

Girl All The Bad Guys Want Bass Tab

   
Artist:Bowling For Soup
Song:Girl All The Bad Guys Want
Album:Drunk Enough To Dance

Why is everyone tabbing this in Drop D but all thier other stuff 
in standard??? They Play in standard tuning so here it is!

Intro
G:------------------|
D:------------------|
A:-5555-------------|x2
E:-----222233335555-|

Verse
G:------------------|
D:------------------|
A:-55555555---------|x4
E:---------33335555-|

Pre Chorus
G:--------------------------------------------------|
D:--------------------------------------------------|
A:-------------------------55555555-----------------|x1
E:-777777775555555533333333--------0000000033333333-|

G:------------------|
D:------------------|
A:-55---------------|x1
E:-----00--22--33---|

Chorus
G:--------------------------------------------------|
D:--------------------------------------------------|
A:--------------------------------------------------|x1
E:-000000002222222233333333222222223333333355555555-|

Intro
G:------------------|
D:------------------|
A:-5555-------------|x2
E:-----222233335555-|

Verse
G:------------------|
D:------------------|
A:-55555555---------|x4
E:---------33335555-|

Pre Chorus
G:--------------------------------------------------|
D:--------------------------------------------------|
A:-------------------------55555555-----------------|x1
E:-777777775555555533333333--------0000000033333333-|
[ Tab from: http://www.guitartabs.cc/tabs/b/bowling_for_soup/girl_all_the_bad_guys_want_btab.html ]
G:------------------|
D:------------------|
A:-55---------------|x1
E:-----00--22--33---|

Pre Chorus 2
G:----------------------------------|
D:----------------------------------|
A:-55555555-------------------------|x1
E:---------000000002222222233333333-|

Chorus
G:--------------------------------------------------|
D:--------------------------------------------------|
A:--------------------------------------------------|x1
E:-000000002222222233333333222222223333333355555555-|

Intro
G:------------------|
D:------------------|
A:-5555-------------|x4
E:-----222233335555-|


Bridge
G:---------------------------------|  |---------------------|
D:---------------------------------|  |---------------------|
A:---------------------------------|x1|---------------------|x1
E:-7-7-7-7-5-5-5-5-3-3-3-3-3-3-3-3-|  |-7-7-7-7-5-5-5-5-3~--|

G:----------------------|
D:----------------------|
A:-5---5----------------|x1
E:---------5---5---3333-|

Piano and vocals only for about 15 seconds

Chorus
G:--------------------------------------------------|
D:--------------------------------------------------|
A:--------------------------------------------------|x1
E:-000000002222222233333333222222223333333355555555-|

Intro
G:------------------|  |----------------------|
D:------------------|  |----------------------|
A:-5555-------------|x5|-5555------------555.-|x1
E:-----222233335555-|  |-----222233335555-----|
Comments