Bowling For Soup - Down For The Count Chords & Tabs

 

Down For The Count Chords & Tabs

Bowling For Soup Chords & Tabs

Version: 2 Type: Tab 0 ratings
1 star 2 stars 3 stars 4 stars 5 stars
comments

Down For The Count Tab

Guitar Intro:
e|---------------------------------------------------------|
B|---------------------------------------------------------|
G|-44~~~---4-------44~~~---4--------99~~~---4--------44~~~-|
D|-44~~~---4-------44~~~---4--------99~~~---4--------44~~~-|
A|-22~~~---2-------22~~~---2--------77~~~---2--------22~~~-|
E|---------------------------------------------------------|

Verse:
e|--------------------------------------------------------|
B|--------------------------------------------------------|
G|--------------------------------------------------------|
D|-44444444-----------------------------------------------|
A|-22222222-44444444-22222222-44444444--------------------|
E|----------22222222-00000000-22222222--------------------|
[ Tab from: http://www.guitartabs.cc/tabs/b/bowling_for_soup/down_for_the_count_tab_ver_2.html ]
Pre-Chorus:
e|--------------------------------------------------------|
B|--------------------------------------------------------|
G|9999-----------------------------9999----------7777----|
D|9999--9999---11-11-11-11-9999---9999--9999----7777----|
A|7777-9999---11-11-11-11--9999---7777--9999----5555----|
E|-------7777---9--9--9--9---7777---------7777------------|

Chorus:
e|--------------------------------------------------------|
B|--------------------------------------------------------|
G|----666--------444---66---------------------------------|
D|----666----66-444---66---------------------------------|
A|----444----66-222--44---------------------------------|
E|-----------44-------------------------------------------|

e|--------------------------------------------------------|
B|--------------------------------------------------------|
G|----666-------4--4--4--4--------------------------------|
D|----666----664-4-4-4--------------------------------|
A|----444----662-2-2--2--------------------------------|
E|-----------44-------------------------------------------|
Comments