Bowling For Soup - Andrew Chords & Tabs

 

Andrew Chords & Tabs

Bowling For Soup Chords & Tabs

Version: 1 Type: Tab 0 ratings
1 star 2 stars 3 stars 4 stars 5 stars
comments

Andrew Tab

Bowling for Soup - Andrew
By:Andrew Mcshan (Guitarguyx182@aol.com)
[ Tab from: http://www.guitartabs.cc/tabs/b/bowling_for_soup/andrew_tab.html ]
Intro
e|---------------------------------------------------------------------------|
B|---------------------------------------------------------------------------|
G|-9-7-6---------------------------------------------------------------------|
D|-9-7-6-7--x4-----9---------------------------------------------------------|
A|-7-5-4-7---------9---------------------------------------------------------|
E|-------5---------7---------------------------------------------------------|
                  Pm.........
Verse
e|---------------------------------------------------------------------------|
B|---------------------------------------------------------------------------|
G|-9-------------------------------------------------------------------------|
D|-9--7-----9----------------------------------------------------------------|
A|-7--7--x4-9----------------------------------------------------------------|
E|----5-----7----------------------------------------------------------------|
            Pm........
Chorus
e|---------------------------------------------------------------------------|
B|---------------------------------------------------------------------------|
G|-4----7------4-------------------------------------------------------------|
D|-4--7-7--x4--4---7---5-----------------------------------------------------|
A|-2--7-5------2---7---5-----------------------------------------------------|
E|----5------------5---3-----------------------------------------------------|

Verse

Chorus

Bridge "Raise your hand" 
e|--------------------------------------------------------------------------|
B|--------------------------------------------------------------------------|
G|------7-------------------------------------------------------------------|
D|-10---7---7---------------------------------------------------------------|
A|-10---5---7---------------------------------------------------------------|
E|-8--------5---------------------------------------------------------------|
Comments