Bowling For Soup - Almost Chords & Tabs

 

Almost Chords & Tabs

Bowling For Soup Chords & Tabs

Version: 4 Type: Tab 0 ratings
1 star 2 stars 3 stars 4 stars 5 stars
comments

Almost Tab

   
Tab By Vampir3sLov3r
Song: Almost

This is a great song,The only song i like from BFS, But the other tabs arn't right.

-Standard Tuning-

Intro
E|-------------------------------------|
B|-----542024----542024----542024------|
G|---4---------4---------4---------4---|
D|--4-4-------4-4-------4-4-------4-4~-|
A|-2-----------------------------------|
E|-----------2---------4---------0-----|

Guitar Riff 1 x6
E|-----------|
B|-----------|
G|-4/8-6/8/4-|
D|-x/x-x/x/x-|
A|-2/6-4/6/2-|
E|-----------|

E|-----------|
B|-----------|
G|-4/9-8/44--|
D|-x/x-x/xx--|
A|-2/7-6/22--|
E|-----------|

Guitar 2 Riff/Verse
E|--------------------------------|
B|--------------------------------|
G|-4-4-4-4------------------------|
D|-4-4-4-4-4-4-4-4-6-6-6-6-2-2-2-2|
A|-2-2-2-2-4-4-4-4-6-6-6-6-2-2-2-2|
E|---------2-2-2-2-4-4-4-4-0-0-0-0|
 ^^Play with choppyness^^

Chorus x2
E|--------------------------------|
B|--------------------------------|
G|-4-4-4-4------------------------|
D|-4-4-4-4-4-4-4-4-6-6-6-6-2-2-2-2|
A|-2-2-2-2-4-4-4-4-6-6-6-6-2-2-2-2|
E|---------2-2-2-2-4-4-4-4-0-0-0-0|

Riff 1 x3
E|-----------|
B|-----------|
G|-4/8-6/8/4-|
D|-x/x-x/x/x-|
A|-2/6-4/6/2-|
E|-----------|

E|-----------|
B|-----------|
G|-4/9-8/44--|
D|-x/x-x/xx--|
A|-2/7-6/22--|
E|-----------|
[ Tab from: http://www.guitartabs.cc/tabs/b/bowling_for_soup/almost_tab_ver_4.html ]
Guitar 2 Backround/verse 2
E|--------------------------------|
B|--------------------------------|
G|-4-4-4-4------------------------|
D|-4-4-4-4-4-4-4-4-6-6-6-6-2-2-2-2|
A|-2-2-2-2-4-4-4-4-6-6-6-6-2-2-2-2|
E|---------2-2-2-2-4-4-4-4-0-0-0-0|

Chorus

E|-------------------------------|
B|-------------------------------|
G|-------------------------4~----|
D|-6-6-6-6-4-4-4-4-2-2-2-2-4~--4-|
A|-6-6-6-6-4-4-4-4-2-2-2-2-2~--4-|
E|-4-4-4-4-2-2-2-2-0-0-0-0-----2-|
"You kept me guessing..."
Riff x3

Bridge
E|---------------|  |---------------|
B|---------------|  |---------------|
G|----------4----|  |-------------4~|
D|-4----2---4x8--|x2|-6---4---2---4~|
A|-4x12-2x8-2----|  |-6x8-4x8-2x8-2~|
E|-2----0--------|  |-4---2---0-----|
"Here i go..."      "I know we've.."

Verse 3
E|------------------------------------------|
B|-----542024----542024----542024----542024-|
G|---4---------4---------4---------4--------|
D|--4-4-------4-4-------4-4-------4-4-------|
A|-2----------------------------------------|
E|-----------2---------4---------0----------|
"I almost forgot..."

E|--------------------------------------|
B|-----542024----542024-----------------|
G|---4---------4------------------------|
D|--4-4-------4-4------6666666622222222-|
A|-2-------------------6666666622222222-|
E|-----------2---------4444444400000000-|
                    "But then I..."

Chorus

Riff
E|------------------------------|
B|------------------------------|
G|-4/8-6/8/4--------------------|
D|-x/x-x/x-x-x3-4-4-4444-4-4-2~-|
A|-2/6-4/6-2----4-4-4444-4-4-2~-|
E|--------------2-2-2222-2-2-0~-|


THank you

Great song...
Comments