Bowling For Soup - Almost Chords & Tabs

 

Almost Chords & Tabs

Bowling For Soup Chords & Tabs

Version: 2 Type: Tab 0 ratings
1 star 2 stars 3 stars 4 stars 5 stars
comments

Almost Tab

##################################################################################
# This file is the author's own work and represents their interpretation of the  #
# song. You may only use this file for private study, scholarship, or research.  #
##################################################################################

Bowling For Soup - Almost

Tab: Slugfest


INTRO
e|--------0-------------------0------------------0------------------0-------------------
B|----------4-2-0-2-4-----------4-2-0-2-4----------4-2-0-2-4----------4-2-0-2-4---------
G|-----4-------------------4------------------4------------------4----------------------
D|----4-4-----------------4-4----------------4-4----------------4-4---------------------
A|-2------------------------------------------------------------------------------------
E|---------------------2-------------------4------------------0-------------------------

1st Bridge
e|---------------------------
B|---------------------------
G|--/8--6-8-4------9--8--6--- gtr 1
D|-------------x3------------
A|--/6--4-6-2------7--6--4--- gtr 2
E|---------------------------

Verse
e|-------------------------------------
B|-------------------------------------
G|-4-4-4-4-----------------------------
D|-4-4-4-4--4-4-4-4--6-6-6-6--2-2-2-2--
A|-2-2-2-2--4-4-4-4--6-6-6-6--2-2-2-2--
E|----------2-2-2-2--4-4-4-4--0-0-0-0--
[ Tab from: http://www.guitartabs.cc/tabs/b/bowling_for_soup/almost_tab_ver_2.html ]
Chorus
e|---------------------------------
B|---------------------------------
G|-4~------------------------------
D|-4~----4~----6~----2~------------ 
A|-2~----4~----6~----2~------------
E|-------2~----4~----0~------------

2nd bridge
e|--------------------------------
B|--------------------------------
G|--------------------------------
D|--6-6-6-6--4-4-4-4--2-2-2-2--2--
A|--6-6-6-6--4-4-4-4--2-2-2-2--2--
E|--4-4-4-4--2-2-2-2--0-0-0-0--0--

3rd bridge
e|---------------------------------------------------------
B|---------------------------------------------------------
G|---------------------------------------------------------
D|------------------------------------------|***1 bar***|--
A|-|******2 bars**********|--|***1 bar***|--222222222222---
E|-222222222222222222222222--000000000000------------------

3rd bridge ending
e|----------------------------------
B|----------------------------------
G|--8-8-8-8-------------------------
D|--8-8-8-8--6-6-6-6--2-2-2-2--2----
A|--6-6-6-6--6-6-6-6--2-2-2-2--2----
E|-----------4-4-4-4--0-0-0-0--0----

Outro
e|----------------------------------------------------
B|----------------------------------------------------
G|-4-4-4-4--------------------------------------------
D|-4-4-4-4--4-4-4-4--2-2-2-2--444-444-444-4-----------
A|-2-2-2-2--4-4-4-4--2-2-2-2--------------------------
E|----------2-2-2-2--0-0-0-0--------------------------

Ending
e|--------0----------------
B|----------4-2-0-2-4------
G|-----4-------------------
D|----4-4------------------
A|-------------------------
E|-------------------------


Order:

Intro
1st Bridge x2
Verse x3
Chorus x2
1st Bridge
Verse x3
Chorus x2
2nd Bridge
1st Bridge
3rd Bridge x2
3rd bridge ending
2nd bridge
Intro x2
Verse x2
2nd Bridge
Outro
Verse x1
1st Bridge
Ending x6
Comments