Bowling For Soup - Almost Chords & Tabs

 

Almost Chords & Tabs

Bowling For Soup Chords & Tabs

Version: 1 Type: Tab 8 ratings
1 star 2 stars 3 stars 4 stars 5 stars
comments

Almost Tab

#----------------------------------PLEASE NOTE---------------------------------#
#This file is the author's own work and represents their interpretation of the #
#song. You may only use this file for private study, scholarship, or research. #
#------------------------------------------------------------------------------#


Bowling For Soup - Almost

h - Hammer On
p - Pull Off
/ - Slide Up
\ - Slide Down
~ - Let Ring

INTRO

e|-----------------------------------------------------------------------------------
B|--------5p4p2-0h2h4--------5p4p2-0h2h4------5p4p2-0h2h4------5p4p2-0h2h4-----------
G|-----4------------------4----------------4---------------4-------------------------
D|----4-4----------------4-4--------------4-4-------------4-4------------------------
A|-2---------------------------------------------------------------------------------
E|--------------------2-----------------4---------------0----------------------------

1st Bridge
e|--------------------------------------------------------------
B|--------------------------------------------------------------
G|-8--6/-8\-4-------9--8--6-------------------------------------
D|-x--x/-x\-x--x3---x--x--x-------------------------------------
A|-6--4/-6\-2-------7--6--4-------------------------------------
E|--------------------------------------------------------------

Verse
[ Tab from: http://www.guitartabs.cc/tabs/b/bowling_for_soup/almost_tab.html ]
e|--------------------------------------------------------------
B|--------------------------------------------------------------
G|-4-4-4-4------------------------------------------------------
D|-4-4-4-4--4-4-4-4--6-6-6-6--2-2-2-2---------------------------
A|-2-2-2-2--4-4-4-4--6-6-6-6--2-2-2-2---------------------------
E|----------2-2-2-2--4-4-4-4--0-0-0-0---------------------------


Chorus

e|---------------------------------
B|---------------------------------
G|-4~------------------------------
D|-4~----4~----6~----2~------------ 
A|-2~----4~----6~----2~------------
E|-------2~----4~----0~------------


2nd bridge
e|-----------------------------------------------------
B|-----------------------------------------------------
G|--4-4-4-4--------------------4~----------------------
D|--4-4-4-4--4-4-4-4--2-2-2-2--4~----------------------
A|--2-2-2-2--4-4-4-4--2-2-2-2--2~----------------------
E|-----------2-2-2-2--0-0-0-0--------------------------

3rd bridge

e|------------------------------------------------------------
B|------------------------------------------------------------
G|------------------------------------------------------------
D|------------------------------------------------------------
A|------------------------------------------------------------
E|-2222222222222-000000000-777777777777-----------------------



Order:

Intro
1st Bridge x2
Verse x3
Chorus x2
1st Bridge
Verse x3
Chorus x2
2nd Bridge
1st Bridge
3rd Bridge x2
2nd bridge
Intro x2
Verse x2
2nd Bridge
Verse x2
1st Bridge

Ending

e|-------------------------
B|--------5p4p2-0h2h4------
G|-----4-------------------  x6
D|----4-4------------------
A|-------------------------
E|-------------------------
Comments