Bowling For Soup - A-hole Chords & Tabs

 

A-hole Chords & Tabs

Bowling For Soup Chords & Tabs

Version: 1 Type: Tab 0 ratings
1 star 2 stars 3 stars 4 stars 5 stars
comments

A-hole Tab

   
-------------------------------------------------------------------------------
                           A-Hole - Bowling for Soup                           
-------------------------------------------------------------------------------
Tabbed by: Ali Hong
Email: southparksaurez@gmail.com

Tuning: standard

Guitar 1: Electric
Guitar 2: Electric
Guitar 3: Acoustic

Intro

   Guitar 1

e|-----------------------------------|
B|-----------------------------------|
G|-12-11-12-11-9----7-5-4-5-4-5-7----|
D|-----------------------------------|
A|-10-9--10-9--7----5-3-2-3-2-3-5----|
E|-----------------------------------|

e|-----------------------------------|
B|-----------------------------------|
G|-12-11-12--11--7--5-----7----------|
D|-----------------------------------|
A|-10-9--10--9---5--3-----5----------|
E|-----------------------------------|



   Guitar 2

e|------------------------------------------|
B|------------------------------------------|
G|----7--5---------/-4-5-4-5-7-\------------| Play
D|-5--7--5--------<--4-5-4-5-7-->-----------|  2x
A|-5--5--3---------\-2-3-2-3-5-/------------|
E|-3----------------------------------------|
Play only the first time ^^


Verse

   Both Guitars (Guitars 1 and 2 strum each chord once)
                (Guitar 3 strums continuously)

E -> G -> C -> E -> E -> G -> C -> G


Prechorus (the things she says...)

   Guitars 1 and 2

e|---------------------|
B|---------------------|
G|--2--4--5--7---------|
D|--2--4--5--7---------|
A|--0--2--3--5---------|
E|---------------------|
[ Tab from: http://www.guitartabs.cc/tabs/b/bowling_for_soup/a_hole_tab.html ]

Chorus

   Guitars 1 and 2

e|---------------------------------|
B|---------------------------------|
G|-----7--5-----7--5--2--7---------|
D|--5--7--5--5--7--5--2--7---------|
A|--5--5--3--5--5--3--0--5---------|
E|--3--------3---------------------|

e|--------------------|
B|--------------------|
G|------7--5--7-------| Play
D|--5---7--5--7-------|  2x
A|--5---5--3--5-------|
E|--3-----------------|

   Guitar 1

e|--------------------|
B|--------------------|
G|--5--7--9--7--------|
D|--------------------|
A|--3--5--7--5--------|
E|--------------------|

   Guitar 2
e|--------------------|
B|--------------------|
G|-----7--------------|
D|--7--7--------------|
A|--7--5--------------|
E|--5-----------------|


Guitar 2 plays its intro part here

Guitar 1 plays the first half of the intro, and then plays this:

e|---------------------------------|
B|---------------------------------|
G|--12--11-12--11-7--5--7--9-------|
D|----------------------------9----|
A|--10--9--10--9--5--3--5--7--9----|
E|----------------------------7----|

Verse

Prechorus

Chorus

Bridge Part 1 (and please don't think I'm complaining...)

   Guitar 3

E -> C -> G -> D

Bridge Part 2 (and if you see her...)

   Guitars 1 and 2


e|-----------------|
B|-----------------|
G|--4--5-----7-----|
D|--4--5--7--7-----|
A|--2--3--7--5-----|
E|--------5--------|

Chorus (repeat as necessary; Guitar 1's chorus and intro riffs are played over this at different times)

==============================================================================
email me with comments or suggestions
Comments