Bowling For Soup - 1985 Chords & Tabs

 

1985 Chords & Tabs

Bowling For Soup Chords & Tabs

Version: 7 Type: Tab 0 ratings
1 star 2 stars 3 stars 4 stars 5 stars
comments

1985 Tab

   
1985 by Bowling for Soup
TAB by Aaron Prescott

Boy, this is complicated.  I think I got most everything.
The Guitar 5 part in the bridge is probably not correct.  It's extremely difficult to hear.
Whoever wants to take a crack at tabbing it, be my guest.
Look carefully at the "Van Halen" trill in the second verse.  It's an F# Major chord.
Other than that, sorry this is so long, but except for the bridge, it's pretty much correct/complete.
Have fun!

Key to TAB symbols:
h     Hammer-On
p     Pull-Off
t     Tap
/     Slide Up
\     Slide Down
x     Muted Note
P.M.  Palm Mute

Guitar 1 (Distortion): Standard Tuning
Guitar 2 (Distortion): Standard Tuning
Guitar 3 (Clean, Chorused): Standard Tuning
Guitar 4 (Distortion): Standard Tuning
Guitar 5 (Acoustic, Chorused): Standard Tuning

INTRO:
    Guitar 1
|-E|-----------------|-----------------|-----------------|-----------------|
| B|-----------------|-----------------|-----------------|-----------------|
| G|-6/8---4/6/8---4-|/6\4/6/8\6\4---4-|/6/8---4/6/8---4-|/6\4/6/8\6-------|
| D|-x-x---x-x-x---x-|-x-x-x-x-x-x---x-|-x-x---x-x-x---x-|-x-x-x-x-x-------|
| A|-4/6---2/4/6---2-|/4\2/4/6\4\2---2-|/4/6---2/4/6---2-|/4\2/4/6\4-------|
| E|-----------------|-----------------|-----------------|-----------------|
|
|   Guitar 2
| E|-----------------|-----------------|-----------------|-----------------|
| B|-----------------|-----------------|-----------------|-----------------|
| G|-4-4-4-4-4-4-4-4-|-----------------|-----------------|-----------------|
| D|-4-4-4-4-4-4-4-4-|-2-2-2-2-2-2-2-2-|-6-6-6-6-6-6-6-6-|-4-4-4-4-4-4-4-4-|
| A|-2-2-2-2-2-2-2-2-|-2-2-2-2-2-2-2-2-|-6-6-6-6-6-6-6-6-|-4-4-4-4-4-4-4-4-|
|-E|-----------------|-0-0-0-0-0-0-0-0-|-4-4-4-4-4-4-4-4-|-2-2-2-2-2-2-2-2-|

|-E|-----------------|-----------------|-----------------|-----------------|-----------------|
| B|-----------------|-----------------|-----------------|-----------------|-----------------|
| G|-6/8---4/6/8---4-|/6\4/6/8\6\4---4-|/6/8---4/6/8-----|-----------------|-----------------|
| D|-x-x---x-x-x---x-|-x-x-x-x-x-x---x-|-x-x---x-x-x-----|-4-4-x-x-4-4-x-x-|-4-4-x-x-4-4-----|
| A|-4/6---2/4/6---2-|/4\2/4/6\4\2---2-|/4/6---2/4/6-----|-4-4-x-x-4-4-x-x-|-4-4-x-x-4-4-----|
| E|-----------------|-----------------|-------------16\4|-2-2-x-x-2-2-x-x-|-2-2-x-x-2-2-14\2|
|                                                              *
|
| E|-----------------|-----------------|-----------------|-----------------|-----------------|
| B|-----------------|-----------------|-----------------|-----------------|-----------------|
| G|-4-4-4-4-4-4-4-4-|-----------------|-----------------|-----------------|-----------------|
| D|-4-4-4-4-4-4-4-4-|-2-2-2-2-2-2-2-2-|-6-6-6-6-6-6-6-6-|-4-4-x-x-4-4-x-x-|-4-4-x-x-4-4-x-x-|
| A|-2-2-2-2-2-2-2-2-|-2-2-2-2-2-2-2-2-|-6-6-6-6-6-6-6-6-|-4-4-x-x-4-4-x-x-|-4-4-x-x-4-4-x-x-|
|-E|-----------------|-0-0-0-0-0-0-0-0-|-4-4-4-4-4-4-4-4-|-2-2-x-x-2-2-x-x-|-2-2-x-x-2-2-x-x-|
                                                               *
* Let Random Harmonics Sound

VERSE 1:
  Guitar 2
E||------------------|-----------------|-----------------|------------------||
B||------------------|-----------------|-----------------|------------------||
G||o-4-4-------------|-----------------|-----------------|-----------------o||
D||o-4-4-------------|-2-2-------------|-6-6-------------|-4-4-------------o||
A||--2-2-------------|-2-2-------------|-6-6-------------|-4-4--------------||
E||------------------|-0-0-------------|-4-4-------------|-2-2---------14\2-||
                                                                      (2nd time only)

    Guitar 3
|-E|---9-------------|---9-------------|---9-------------|---------9-------|
| B|---------12------|---------12------|---------12------|-----11---11-----|
| G|-------11--11----|-------11--11----|-------11--11----|---11-------11---|
| D|-------------13--|-------------13--|-------------13--|-11--------------|
| A|-----------------|-----------------|-----------------|-----------------|
| E|-----------------|-----------------|-----------------|-----------------|
|
|   Guitars 1 & 2
| E|-----------------|-----------------|-----------------|-----------------|
| B|-----------------|-----------------|-----------------|-----------------|
| G|-----------------|-----------------|-----------------|-----------------|
| D|-4-4-4-4-4-4-4-4-|-----------------|-----------------|-----------------|
| A|-2-2-2-2-2-2-2-2-|-2-2-2-2-2-2-2-2-|-6-6-6-6-6-6-6-6-|-4-4-4-4-4-4-4-4-|
|-E|-----------------|-0-0-0-0-0-0-0-0-|-4-4-4-4-4-4-4-4-|-2-2-2-2-2-2-2-2-|
     P.M. - - - - - - - - - - - - - - - - - - - - - - - - - - - - - - - - -|

|-E|---9-------------|---9-------------|---9-------------|-----------------|-----------------|
| B|---------12------|---------12------|---------12------|-----------------|-----------------|
| G|-------11--11----|-------11--11----|-------11--11----|-----------------|-----------------|
| D|-------------13--|-------------13--|-------------13--|-----------------|-----------------|
| A|-----------------|-----------------|-----------------|-----------------|-----------------|
| E|-----------------|-----------------|-----------------|-----------------|-----------------|
|
|   Guitars 1 & 2
| E|-----------------|-----------------|-----------------|-----------------|-----------------|
| B|-----------------|-----------------|-----------------|-----------------|-----------------|
| G|-----------------|-----------------|-----------------|-----------------|-----------------|
| D|-4-4-4-4-4-4-4-4-|-----------------|-----------------|-4-4-x-x-4-4-x-x-|-4-4-x-x-4-4-x-x-|
| A|-2-2-2-2-2-2-2-2-|-2-2-2-2-2-2-2-2-|-6-6-6-6-6-6-6-6-|-4-4-x-x-4-4-x-x-|-4-4-x-x-4-4-x-x-|
|-E|-----------------|-0-0-0-0-0-0-0-0-|-4-4-4-4-4-4-4-4-|-2-2-x-x-2-2-x-x-|-2-2-x-x-2-2-x-x-|
     P.M. - - - - - - - - - - - - - - - - - - - - - - - -|     *

REFRAIN
   Guitars 1 & 2
E|-----------------|-----------------|-----------------|-----------------|
B|-----------------|-----------------|-----------------|-----------------|
G|-4-4-4-4-4-4-4-4-|-----------------|-----------------|-----------------|
D|-4-4-4-4-4-4-4-4-|-2-2-2-2-2-2-2-2-|-6-6-6-6-6-6-6-6-|-7-7-7-7-7-7-7-7-|
A|-2-2-2-2-2-2-2-2-|-2-2-2-2-2-2-2-2-|-6-6-6-6-6-6-6-6-|-7-7-7-7-7-7-7-7-|
E|-----------------|-0-0-0-0-0-0-0-0-|-4-4-4-4-4-4-4-4-|-5-5-5-5-5-5-5-5-|

E|-----------------|-----------------|-----------------|-----------------|-----------------|
B|-----------------|-----------------|-----------------|-----------------|-----------------|
G|-4-4-4-4-4-4-4-4-|-----------------|-----------------|-----------------|-----------------|
D|-4-4-4-4-4-4-4-4-|-2-2-2-2-2-2-2-2-|-6-6-6-6-6-6-6-6-|-7-7-7-7-7-7-7-7-|-7-7-7-7-7-7-----|
A|-2-2-2-2-2-2-2-2-|-2-2-2-2-2-2-2-2-|-6-6-6-6-6-6-6-6-|-7-7-----7-7-----|-7-7-----7-7-----|
E|-----------------|-0-0-0-0-0-0-0-0-|-4-4-4-4-4-4-4-4-|-5-5-----5-5-----|-5-5-----5-5-14\2|
                                                             P.M|    P.M|      P.M|     

INTERLUDE:
    Guitar 1
|-E|-----------------|-----------------|-----------------|-----------------|
| B|-----------------|-----------------|-----------------|-----------------|
| G|-6/8---4/6/8---4-|/6\4/6/8\6\4---4-|/6/8---4/6/8---4-|/6\4/6/8\6-------|
| D|-x-x---x-x-x---x-|-x-x-x-x-x-x---x-|-x-x---x-x-x---x-|-x-x-x-x-x-------|
| A|-4/6---2/4/6---2-|/4\2/4/6\4\2---2-|/4/6---2/4/6---2-|/4\2/4/6\4-------|
| E|-----------------|-----------------|-----------------|-----------------|
|
|   Guitar 2
| E|-----------------|-----------------|-----------------|-----------------|
| B|-----------------|-----------------|-----------------|-----------------|
| G|-4-4-4-4-4-4-4-4-|-----------------|-----------------|-----------------|
| D|-4-4-4-4-4-4-4-4-|-2-2-2-2-2-2-2-2-|-6-6-6-6-6-6-6-6-|-4-4-4-4-4-4-4-4-|
| A|-2-2-2-2-2-2-2-2-|-2-2-2-2-2-2-2-2-|-6-6-6-6-6-6-6-6-|-4-4-4-4-4-4-4-4-|
|-E|-----------------|-0-0-0-0-0-0-0-0-|-4-4-4-4-4-4-4-4-|-2-2-2-2-2-2-2-2-|


VERSE 2:
      Guitar 1
|-E|-----7---7---7---|-----7---7---7---|-----7---7---7---|------6---6---6--|
| B|-----7---7---7---|-----9---9---9---|-----9---9---9---|------7---7---7--|
| G|-----8---8---8---|-----9---9---9---|-----8---8---8---|------6---6---6--|
| D|-----------------|-----------------|-----------------|-----------------|
| A|-----------------|-----------------|-----------------|-----------------|
| E|-----------------|-----------------|-----------------|-----------------|
|
|    Guitar 2
| E|-----------------|-----------------|-----------------|-----------------|
| B|-----------------|-----------------|-----------------|-----------------|
| G|-4-4-------------|-----------------|-----------------|-----------------|
| D|-4-4-------------|-2-2-------------|-6-6-------------|-4-4-------------|
| A|-2-2-------------|-2-2-------------|-6-6-------------|-4-4-------------|
|-E|-----------------|-0-0-------------|-4-4-------------|-2-2-------------|


    Guitar 1
|-E|-----7---7---7---|-----7---7---7---|-----7---7---7---|------6---6---6--|
| B|-----7---7---7---|-----9---9---9---|-----9---9---9---|------7---7---7--|
| G|-----8---8---8---|-----9---9---9---|-----8---8---8---|------6---6---6--|
| D|-----------------|-----------------|-----------------|-----------------|
| A|-----------------|-----------------|-----------------|-----------------|
| E|-----------------|-----------------|-----------------|-----------------|
|
|   Guitar 4
| E|-----------------|-----------------|-----------------|-----------------|
| B|-----------------|-----------------|-----------------|-----------------|
| G|-4-4-4-4-4-4-4-4-|-9-9-9-9-9-9-9-9-|-----------------|-----------------|
| D|-x-x-x-x-x-x-x-x-|-x-x-x-x-x-x-x-x-|-6-6-6-6-6-6-6-6-|-4-4-4-4-4-4-4-4-|
| A|-2-2-2-2-2-2-2-2-|-7-7-7-7-7-7-7-7-|-6-6-6-6-6-6-6-6-|-x-x-x-x-x-x-x-x-|
| E|-----------------|-----------------|-----------------|-2-2-2-2-2-2-2-2-|
|    P.M - - - - - - - - - - - - - - - - - - - - - - - - - - - - - - - - - |
|
|   Guitar 2
| E|-----------------|-----------------|-----------------|-----------------|
| B|-----------------|-----------------|-----------------|-----------------|
| G|-4-4-------------|-----------------|-----------------|-----------------|
| D|-4-4-------------|-2-2-------------|-6-6-------------|-4-4-------------|
| A|-2-2-------------|-2-2-------------|-6-6-------------|-4-4-------------|
|-E|-----------------|-0-0-------------|-4-4-------------|-2-2-------------|

[ Tab from: http://www.guitartabs.cc/tabs/b/bowling_for_soup/1985_tab_ver_7.html ]
    Guitar 4
|-E|-----------------|-----------------|-----------------|---------------------------------------------|
| B|-----------------|-----------------|-----------------|-------7h11p7-t14p7t14p711p7-t14p7t14p711p7--|
| G|-----------------|-----------------|-----------------|---------------------------------------------|
| D|-----------------|-----------------|-----------------|---------------------------------------------|
| A|-----------------|-----------------|-----------------|---------------------------------------------|
| E|-----------------|-----------------|-----------------|---------------------------------------------|
|
|   Guitar 3
| E|---9-------------|---9-------------|---9-------------|---------------9-----------------------------|
| B|---------12------|---------12------|---------12------|-----11----------------11--------------------|
| G|-------11--11----|-------11--11----|-------11--11----|---11-------------------------11-------------|
| D|-------------13--|-------------13--|-------------13--|-11------------------------------------------|
| A|-----------------|-----------------|-----------------|---------------------------------------------|
| E|-----------------|-----------------|-----------------|---------------------------------------------|
|
|   Guitars 1 & 2
| E|-----------------|-----------------|-----------------|---------------------------------------------|
| B|-----------------|-----------------|-----------------|---------------------------------------------|
| G|-----------------|-----------------|-----------------|---------------------------------------------|
| D|-4-4-4-4-4-4-4-4-|-----------------|-----------------|---------------------------------------------|
| A|-2-2-2-2-2-2-2-2-|-2-2-2-2-2-2-2-2-|-6-6-6-6-6-6-6-6-|-4-4-4-4-------4-------4------4------4-------|
|-E|-----------------|-0-0-0-0-0-0-0-0-|-4-4-4-4-4-4-4-4-|-2-2-2-2-------2-------2------2------2-------|
     P.M. - - - - - - - - - - - - - - - - - - - - - - - - - - - - - - - - - - - - - - - - - - - - - - -|


|-E|-----------------|-----------------|-----------------|-----------------|-----------------|
| B|-12\-------------|-----------------|-----------------|-----------------|-----------------|
| G|-----------------|-----------------|-----------------|-----------------|-----------------|
| D|-----------------|-----------------|-----------------|-----------------|-----------------|
| A|-----------------|-----------------|-----------------|-----------------|-----------------|
| E|-----------------|-----------------|-----------------|-----------------|-----------------|
|
| E|---9-------------|---9-------------|---9-------------|-----------------|-----------------|
| B|---------12------|---------12------|---------12------|-----------------|-----------------|
| G|-------11--11----|-------11--11----|-------11--11----|-----------------|-----------------|
| D|-------------13--|-------------13--|-------------13--|-----------------|-----------------|
| A|-----------------|-----------------|-----------------|-----------------|-----------------|
| E|-----------------|-----------------|-----------------|-----------------|-----------------|
|
| E|-----------------|-----------------|-----------------|-----------------|-----------------|
| B|-----------------|-----------------|-----------------|-----------------|-----------------|
| G|-----------------|-----------------|-----------------|-----------------|-----------------|
| D|-4-4-4-4-4-4-4-4-|-----------------|-----------------|-4-4-x-x-4-4-x-x-|-4-4-------------|
| A|-2-2-2-2-2-2-2-2-|-2-2-2-2-2-2-2-2-|-6-6-6-6-6-6-6-6-|-4-4-x-x-4-4-x-x-|-4-4-------------|
|-E|-----------------|-0-0-0-0-0-0-0-0-|-4-4-4-4-4-4-4-4-|-2-2-x-x-2-2-x-x-|-2-2-------------|
     P.M. - - - - - - - - - - - - - - - - - - - - - - - -|     *

REFRAIN:
  Guitars 1 & 2
E|-----------------|-----------------|-----------------|-----------------|
B|-----------------|-----------------|-----------------|-----------------|
G|-4-4-4-4-4-4-4-4-|-----------------|-----------------|-----------------|
D|-4-4-4-4-4-4-4-4-|-2-2-2-2-2-2-2-2-|-6-6-6-6-6-6-6-6-|-7-7-7-7-7-7-7-7-|
A|-2-2-2-2-2-2-2-2-|-2-2-2-2-2-2-2-2-|-6-6-6-6-6-6-6-6-|-7-7-7-7-7-7-7-7-|
E|-----------------|-0-0-0-0-0-0-0-0-|-4-4-4-4-4-4-4-4-|-5-5-5-5-5-5-5-5-|

E|-----------------|-----------------|-----------------|-----------------|-----------------|
B|-----------------|-----------------|-----------------|-----------------|-----------------|
G|-4-4-4-4-4-4-4-4-|-----------------|-----------------|-----------------|-----------------|
D|-4-4-4-4-4-4-4-4-|-2-2-2-2-2-2-2-2-|-6-6-6-6-6-6-6-6-|-7-7-7-7-7-7-7-7-|-7-7-7-7-7-7-7-7-|
A|-2-2-2-2-2-2-2-2-|-2-2-2-2-2-2-2-2-|-6-6-6-6-6-6-6-6-|-7-7-----7-7-----|-7-7-----7-7-----|
E|-----------------|-0-0-0-0-0-0-0-0-|-4-4-4-4-4-4-4-4-|-5-5-----5-5-----|-5-5-----5-5-----|
                                                             P.M|    P.M|      P.M|    P.M| 

GUITAR SOLO:
    Guitar 4
|-E|-----------------|-----------------|-----------------|-----------------|
| B|-----------------|-----------------|-----------------|-8\7-8\7-8\7-5-4-|
| G|-----8---6---4---|-----4---6---8---|-----8---6---4---|-----------------|
| D|-----------------|-----------------|-----------------|-----------------|
| A|-----------------|-----------------|-----------------|-----------------|
| E|-----------------|-----------------|-----------------|-----------------|
|
|   Guitar 1
| E|-----------------|-----------------|-----------------|-----------------|
| B|-----------------|-----------------|-----------------|-----------------|
| G|-----8---6---4---|-----4---6---8---|-----8---6---4---|-9\8-9\8-9\8-6-4-|
| D|-----------------|-----------------|-----------------|-----------------|
| A|-----------------|-----------------|-----------------|-----------------|
| E|-----------------|-----------------|-----------------|-----------------|
| 
|   Guitar 2
| E|-----------------|-----------------|-----------------|-----------------|
| B|-----------------|-----------------|-----------------|-----------------|
| G|-----------------|-----------------|-----------------|-----------------|
| D|-4-4-4-4-4-4-4-4-|-----------------|-----------------|-----------------|
| A|-2-2-2-2-2-2-2-2-|-2-2-2-2-2-2-2-2-|-6-6-6-6-6-6-6-6-|-4-4-4-4-4-4-4-4-|
|-E|-----------------|-0-0-0-0-0-0-0-0-|-4-4-4-4-4-4-4-4-|-2-2-2-2-2-2-2-2-|
     P.M. - - - - - - - - - - - - - - - - - - - - - - - - - - - - - - - - -|

BRIDGE:
    Guitar 3
|-E|-----11--9---7---|-----7---9---11--|-----11--9---7---|-----7---9---11--|
| B|-----------------|-----------------|-----------------|-----------------|
| G|-----------------|-----------------|-----------------|-----------------|
| D|-----------------|-----------------|-----------------|-----------------|
| A|-----------------|-----------------|-----------------|-----------------|
| E|-----------------|-----------------|-----------------|-----------------|
|
|   Guitar 5
| E|-----7-----------|-----7-----------|-----7-----------|-----6-----------|
| B|-------7---------|-------9---------|-------9---------|-------7---------|
| G|---8-----8-------|---9-----9-------|---8-----8-------|---6-----6-------|
| D|-----------------|-----------------|-----------------|-----------------|
| A|-----------------|-----------------|-----------------|-----------------|
| E|-----------------|-----------------|-----------------|-----------------|
|
|  Guitar 2
| E|-----------------|-----------------|-----------------|-----------------|
| B|-----------------|-----------------|-----------------|-----------------|
| G|-----------------|-----------------|-----------------|-----------------|
| D|-4-4-4-4-4-4-4-4-|-----------------|-----------------|-----------------|
| A|-2-2-2-2-2-2-2-2-|-2-2-2-2-2-2-2-2-|-6-6-6-6-6-6-6-6-|-4-4-4-4-4-4-4-4-|
|-E|-----------------|-0-0-0-0-0-0-0-0-|-4-4-4-4-4-4-4-4-|-2-2-2-2-2-2-2-2-|
     P.M. - - - - - - - - - - - - - - - - - - - - - - - - - - - - - - - - -|


|-E|-----11--9---7---|-----7---9---11--|-----11--9---7---|-----------------|-----------------|
| B|-----------------|-----------------|-----------------|-----------------|-----------------|
| G|-----------------|-----------------|-----------------|-----------------|-----------------|
| D|-----------------|-----------------|-----------------|-----------------|-----------------|
| A|-----------------|-----------------|-----------------|-----------------|-----------------|
| E|-----------------|-----------------|-----------------|-----------------|-----------------|
|
| E|-----7-----------|-----7-----------|-----7-----------|-----------------|-----------------|
| B|-------7---------|-------9---------|-------9---------|-----------------|-----------------|
| G|---8-----8-------|---9-----9-------|---8-----8-------|-----------------|-----------------|
| D|-----------------|-----------------|-----------------|-----------------|-----------------|
| A|-----------------|-----------------|-----------------|-----------------|-----------------|
| E|-----------------|-----------------|-----------------|-----------------|-----------------|
|
|                                                         Guitars 1 & 2
| E|-----------------|-----------------|-----------------|-----------------|-----------------|
| B|-----------------|-----------------|-----------------|-----------------|-----------------|
| G|-----------------|-----------------|-----------------|-----------------|-----------------|
| D|-4-4-4-4-4-4-4-4-|-----------------|-----------------|-4-4-x-x-4-4-x-x-|-4---------------|
| A|-2-2-2-2-2-2-2-2-|-2-2-2-2-2-2-2-2-|-6-6-6-6-6-6-6-6-|-4-4-x-x-4-4-x-x-|-4---------------|
|-E|-----------------|-0-0-0-0-0-0-0-0-|-4-4-4-4-4-4-4-4-|-2-2-x-x-2-2-x-x-|-2---------------|
   P.M. - - - - - - - - - - - - - - - - - - - - - - - -|

REFRAIN:
  Guitars 1 & 2
E|-----------------|-----------------|-----------------|-----------------|
B|-----------------|-----------------|-----------------|-----------------|
G|-4-4-4-4-4-4-4-4-|-----------------|-----------------|-----------------|
D|-4-4-4-4-4-4-4-4-|-2-2-2-2-2-2-2-2-|-6-6-6-6-6-6-6-6-|-7-7-7-7-7-7-7-7-|
A|-2-2-2-2-2-2-2-2-|-2-2-2-2-2-2-2-2-|-6-6-6-6-6-6-6-6-|-7-7-7-7-7-7-7-7-|
E|-----------------|-0-0-0-0-0-0-0-0-|-4-4-4-4-4-4-4-4-|-5-5-5-5-5-5-5-5-|

E|-----------------|-----------------|-----------------|-----------------|
B|-----------------|-----------------|-----------------|-----------------|
G|-4-4-4-4-4-4-4-4-|-----------------|-----------------|-----------------|
D|-4-4-4-4-4-4-4-4-|-2-2-2-2-2-2-2-2-|-6-6-6-6-6-6-6-6-|-7-7-7-7-7-7-7-7-|
A|-2-2-2-2-2-2-2-2-|-2-2-2-2-2-2-2-2-|-6-6-6-6-6-6-6-6-|-7-7-7-7-7-7-7-7-|
E|-----------------|-0-0-0-0-0-0-0-0-|-4-4-4-4-4-4-4-4-|-5-5-5-5-5-5-5-5-|

OUTRO:
  Guitars 1 & 2
E|-----------------|-----------------|-----------------|-----------------|
B|-----------------|-----------------|-----------------|-----------------|
G|-4-4-4-4-4-4-4-4-|-----------------|-----------------|-----------------|
D|-4-4-4-4-4-4-4-4-|-2-2-2-2-2-2-2-2-|-6-6-6-6-6-6-6-6-|-7-7-7-7-7-7-7-7-|
A|-2-2-2-2-2-2-2-2-|-2-2-2-2-2-2-2-2-|-6-6-6-6-6-6-6-6-|-7-7-7-7-7-7-7-7-|
E|-----------------|-0-0-0-0-0-0-0-0-|-4-4-4-4-4-4-4-4-|-5-5-5-5-5-5-5-5-|

E|-----------------|-----------------|-----------------|-----------------|
B|-----------------|-----------------|-----------------|-----------------|
G|-4-4-4-4-4-4-4-4-|-----------------|-----------------|-----------------|
D|-4-4-4-4-4-4-4-4-|-2-2-2-2-2-2-2-2-|-6-6-6-6-6-6-6-6-|-7-7-7-7-7-7-7-7-|
A|-2-2-2-2-2-2-2-2-|-2-2-2-2-2-2-2-2-|-6-6-6-6-6-6-6-6-|-7-7-7-7-7-7-7-7-|
E|-----------------|-0-0-0-0-0-0-0-0-|-4-4-4-4-4-4-4-4-|-5-5-5-5-5-5-5-5-|

E|-----------------|-----------------|-----------------|-----------------|-----------------*|
B|-----------------|-----------------|-----------------|-----------------|-----------------*|
G|-4-4-4-4-4-4-4-4-|-----------------|-----------------|-----------------|-----------------*|
D|-4-4-4-4-4-4-4-4-|-2-2-2-2-2-2-2-2-|-6-6-6-6-6-6-6-6-|-7-7-77777-7-7777|-7-7-77777-7\----*|
A|-2-2-2-2-2-2-2-2-|-2-2-2-2-2-2-2-2-|-6-6-6-6-6-6-6-6-|-7-7-----7-7-----|-7-7-----7-7\----*|
E|-----------------|-0-0-0-0-0-0-0-0-|-4-4-4-4-4-4-4-4-|-5-5-----5-5-----|-5-5-----5-5\----*|
                                                             P.M|    P.M|      P.M|
Comments