Bowling For Soup - 1985 Chords & Tabs

 

1985 Chords & Tabs

Bowling For Soup Chords & Tabs

Version: 1 Type: Tab 8 ratings
1 star 2 stars 3 stars 4 stars 5 stars
comments

1985 Tab

   Intro (guitar 1)
E|----------------------------------------------------------------||
B|----------------------------------------------------------------||
G|6/8-4/6/8-4/64/6/864-4/6/8-4/6/8-4/64/6/86-----------------||
D|x-x-x-x-x-x-x-x-x-x-x-x-x-x-x-x-x-x-x-x-x-x-x-x-----------------||
A|4/6-2/4/6-2/42/4/642-2/4/6-2/4/6-2/42/4/64-----------------||
E|----------------------------------------------------------------||

     Intro (guitar 2)
E|---------------------------------------------|--------------------||
B|---------------------------------------------|--------------------||
G|44444444-------------------------------------|--------------------||
D|44444444-22222222-66666666-44444444----------|-44xx44xx44xx44--9-||
A|22222222-22222222-66666666-44444444----------|-44xx44xx44xx44--9-||
E|---------00000000-44444444-22222222----------|-22xx22xx22xx22--7-||

     Verse (guitar 1)
E|---------------|-------------------------------------|------------------||
B|---------------|-------------------------------------|------------------||
G|-44------------|-44444444----------------------------|------------------||
D|-44-22-66-44---|-44444444-22222222-66666666-44444444-|-44xx44xx44xx44-9||
A|-22-22-66-44---|-22222222-22222222-66666666-44444444-|-44xx44xx44xx44-9||
E|----00-44-22---|----------00000000-44444444-22222222-|-22xx22xx22xx22-7||
                   ........ ........ ........ ........      
[ Tab from: http://www.guitartabs.cc/tabs/b/bowling_for_soup/1985_tab.html ]
  Verse (guitar 2)  (can hear in background; thats all i hear but it might
                        be everything else in the brigde too)
E|--------------------|------------------------||
B|-14----12----12-----|-11----11-------12------||
G|----11----11----11--|----11----11-15---------||
D|--------------------|------------------------||
A|--------------------|------------------------||
E|--------------------|------------------------||
 
    Chorus
E|--------------------------------------|--------------------------||
B|--------------------------------------|--------------------------||
G|-44444444-----------------------------|--------------------------||
D|-44444444-22222222-66666666-77777777--|-77xx77xx77xx77-----------||
A|-22222222-22222222-66666666-77777777--|-77xx77xx77xx77-----------||
E|----------00000000-44444444-55555555--|-55xx55xx55xx55-----------||

This is 1985 by bowling for soup (Your Welcome)
(After waiting long enough)

Intro 
Verse
Chorus

    Bridge  (Guitar 1)
E|----------------------------------------------------------------||
B|----------------------------------------------------------------||
G|--8-6---------8-8-6---98/98/98-6-----------------------------||
D|-------9-9-11-------9---------------9---------------------------||
A|----------------------------------------------------------------||
E|----------------------------------------------------------------||

   Bridge (Guitar 2)
E|----------------------------------------------------------------||
B|----------------------------------------------------------------||
G|-44444444-------------------------------------------------------||
D|-44444444-22222222-66666666-44444444----------------------------||
A|-22222222-22222222-66666666-44444444----------------------------||
E|----------00000000-44444444-22222222----------------------------||

    Bridge cont.  (guitar 1...no guitar 2) clean
E|----------------------------------------------------------------||
B|----------14-12----------14-12----------14-12----------14-12----||
G|-----11-------------11-------------11-------------11------------||
D|---9----9---------9----9---------9----9---------9----9----------||
A|-9--------------7--------------6--------------------------------||
E|----------------------------------------------9-----------------||

Chorus
Comments