Bowling For Soup - 1985 Intro Chords & Tabs

 

1985 Intro Chords & Tabs

Bowling For Soup Chords & Tabs

Version: 1 Type: Chords 0 ratings
1 star 2 stars 3 stars 4 stars 5 stars
comments

1985 Intro Chords

##################################################################################
# This file is the author's own work and represents their interpretation of the  #
# song. You may only use this file for private study, scholarship, or research.  #
##################################################################################

Song:1985
Artist: Bowling For Soup

TAB: SLUGFEST

Woohoohoo
Woohoohoo

Intro Riff 
E|---|---------------------------|      |------|
B|---|---------------------------|      |------|
G|---|---------------------------| 3.5x |------| 4x
D|---|---1------1----------1-----|      |--4-4-|
A|-2-|-4----2-4----2-4-2-4---4-2-|      |--4-4-|
E|---|---------------------------|      |--2-2-|
[ Tab from: http://www.guitartabs.cc/tabs/b/bowling_for_soup/1985_intro_crd.html ]
SOLO
E|-----------------------------------------------------|
A|-----------------------------------------------------|
D|--8-6-------8-6---8-6----8(b9)--8(b9)--8(b9)--6------|
G|------9---9-----------9------------------------9-----|
B|-----------------------------------------------------|
E|-----------------------------------------------------|



*********************************************************


Artist: Bowling For Soup
Song: 1985
Tabbed by: Mark d'Eon


Intro

--------------------------------------------|
--------------------------------------------|
--------------------------------------------|
--------------------------------------------------------------------------------------4--4--|
-----2/4--6--2/4--6--2--4--2--4--6--4--2--2/4--6--2/4--6--2--4--2--4--6--4--4--4--|
--------------------------------------------------------------------------------------2--2--|


Comments