Bowling For Soup - 1985 Chords & Tabs

 

1985 Chords & Tabs

Bowling For Soup Chords & Tabs

Version: 2 Type: Bass Tab 0 ratings
1 star 2 stars 3 stars 4 stars 5 stars
comments

1985 Bass Tab

   
Tabbed By : Bryce
e-mail: b_etz@hotmail.com

Tuning:Standard

first tab, but its a pretty simple song...enjoy!

Intro 
G|---------------------------------------------------------------------------|
D|---------------------------------------------------------------------------|
A|22222222-------------------------------------------------------------------|
E|---------00000000-44444444-22222222----------------------------------------|

2nd half of Intro
G|---------------------------------------------------------------------------|
D|---------------------------------------------------------------------------|
A|22222222-------------------------------------------------------------------|
E|---------00000000-44444444-22x22x22x---------------------------------------|

Verse
G|---------------------------------------------------------------------------|
D|---------------------------------------------------------------------------|
A|22----------------------------------22-------------------------------------|
E|---------00-------44-------22---------------00------44-------22------------|

2nd half of the verse
G|---------------------------------------------------------------------------|
D|---------------------------------------------------------------------------|
A|22222222-------------------------------------------------------------------|
E|---------00000000-44444444-22x22x22x---------------------------------------|
[ Tab from: http://www.guitartabs.cc/tabs/b/bowling_for_soup/1985_btab_ver_2.html ]
Chorus
G|---------------------------------------------------------------------------|
D|---------------------------------------------------------------------------|
A|22222222-------------------------------------------------------------------|
E|---------00000000-44444444-55555555----------------------------------------|

2nd half of Chorus
G|---------------------------------------------------------------------------|
D|---------------------------------------------------------------------------|
A|22222222-------------------------------------------------------------------|
E|---------00000000-44444444-55x55x55x---------------------------------------|


Then:
Intro 1x
Intro continued 1x
Verse 1x
2nd part of verse 1x
Chorus 1x
2nd half of Chorus 1x

Slow part
G|---------------------------------------------------------------------------|
D|---------------------------------------------------------------------------|
A|5~-----------------4~--------2~----------------------------4~--------------|
E|----------2~---------------------------0~--------2~------------------------|

"Please make this stop...stop...stop"
G|---------------------------------------------------------------------------|
D|---------------------------------------------------------------------------|
A|22x22x22x------------------------------------------------------------------|
E|---------------------------------------------------------------------------|

Then play the first part of the chorus 3x and end with the 2nd half of the chorus

| /  slide up
| \  slide down
| h  hammer-on
| p  pull-off
| ~  vibrato
| +  harmonic
| x  Mute note
===============================================================================
Comments